Song name
# A B C D E F G H I J K L M N O P Q R S T U V W X Y Z

Misc Unsigned Bands - Rock On - Sinbad The Sailor tab

Help us improve GuitareTab! Take a short survey!
#----------------------------------PLEASE NOTE---------------------------------#
#This file is the author's own work and represents their interpretation of the #
#song. You may only use this file for private study, scholarship, or research. #
#------------------------------------------------------------------------------##
Tabbed by # Naman Chopra, Purdue University

Sinbad the Sailor -- Solo
OST - Rock-On

My first tab. Comments are welcomed.

e|---------------------------------------------------------------|
B|---------------------------------------------------------------|
G|\12~--10---10~--10-9-10-9-7-9-7-5-7-5-4-5-7--------------------|
D|--------12----------------------------------5-7---5-7---5~-----|
A|------------------------------------------------7-----7--------|
E|---------------------------------------------------------------|

e|-------------------12-14---------------------------------------|
B|-------13-12^-^--15------15-12^--------------------------------|
G|----10--------------------------14-12-10-9^-10-12~-------------|
D|----10---------------------------------------------------------|
A|-\8------------------------------------------------------------|
E|---------------------------------------------------------------|

e|-------------------------------------------------12-13-12^-12^-|
B|-------10-------------12------\12-13-12^-12-15-15--------------|
G|\10-12----12^--\12-14----14^-----------------------------------|
D|---------------------------------------------------------------|
A|---------------------------------------------------------------|
E|---------------------------------------------------------------|

e|----14^-----15-17^-17^-15-15-12-15-----------------------------|
B|-15------\16-----------------------15--------------------------|
G|---------------------------------------------------------------|
D|---------------------------------------------------------------|
A|---------------------------------------------------------------|
E|---------------------------------------------------------------|
Related for Rock On - Sinbad The Sailor tab