Song name
# A B C D E F G H I J K L M N O P Q R S T U V W X Y Z

Misc Unsigned Bands - Orate - Ser tab

----------------------------------------------------------------------
	Artista :  ORATE
	   Tema :  Ser
            Web :  http://www.orate.com.ar
----------------------------------------------------------------------
		 _____________________________________
		|    Tab Hecho Por Esteban (BrOoD)    |
		|    the4horsemen[at]gmail[dot]com    |
		 -------------------------------------
NOTA:   La tablatura fue hecha solo para fines educativos si se quiere, 
	no representan 100% exacto el tema original, pero puede ser 
	tomado en cuenta como una aproximacion a la verdadera forma 
	de tocar este tema.
----------------------------------------------------------------------
 _______
| INTRO |
 -------

|---------------------|--------------------------------|
|---------------------|--------------------------------|
|---------------------|--------------------10-----10---|
|------7-----5/8--8---|------7-----5/8--8------8-------|
|---5-----3-----------|---5-----3----------------------|
|---------------------|--------------------------------|


|---------------------|----------------------|
|---------------------|----------------------|
|---------------------|----------------------|
|------7-----5/8--8---|------7-----5/8--8~---|
|---5-----3-----------|---5-----3------------|
|---------------------|----------------------|

~00:15
|----------------------|-------------------------------|
|----------------------|-------------------------------|
|----------------------|-------------------------------|
|---7--5-5---8--5--7---|---7--5-5---8--5--7/15--7/14---|
|---5--3-3---6--3--7---|---7--5-5---6--3--7/15--7/14---|
|---5--3-3---6--3--5---|---5--3-3---6--3--5/13--5/12---|

~00:30
|------------------------|
|------------------------|	
|------------------------|
|---7/15--7/14--14-14\---|
|---7/15--7/14--14-14\---|
|---5/13--5/12--12-12\---|

~00:34
|----------------------|-------------------|
|----------------------|-------------------|	
|----------------------|-------------------|
|---7--5-5---8--5--7---|---7--5-5---8--5---|
|---5--3-3---6--3--7---|---7--5-5---6--3---|
|---5--3-3---6--3--5---|---5--3-3---6--3---|

~00:45 - 2 veces
|----------------------------------------------|
|----------------------------------------------|	
|---9-------9/10-------10/12-------10-----9~---|   	
|---9-------9/10-------10/12-------10-----9~---|
|---7--0-0--7/8---0-0---8/10--0-0---8--0--7~---|
|----------------------------------------------|

~00:55 - 6 veces (en la 3º vez empieza la voz)
|-------------------------------------------|
|-------------------------------------------|	
|-------------------------------------------|	
|----------------------2---------2----------|	
|---8-7----------------2---------2----------|
|--------8-7\---0-000--0--0-000--0--0-000---|

~01:18
|------------------------------------------------------------------------------|
|------------------------------------------------------------------------------|
|-------------------4------------4-----------5-----------5---------------------|
|-------------------3------------3-----------5-----------5---------------------|
|---8-7--------2--2-2--2--2-2--2-2--2-2-2-2--3-2--2-2--2-3-------8-7-----------|
|--------8-7~--0--0----0--0-0--0----0-0-0-0----0--0-0--0----0-0-------8-7-7~---|

~01:26
|-----------------------------------------------------------|
|-----------------------------------------------------------|
|-------------4-----------5-----------5---------------------|
|-------------3-----------5-----------5---------------------|
|---2--2-2--2-2--2-2-2-2--3-2--2-2--2-3-------8-7-----------|
|---0--0-0--0----0-0-0-0----0--0-0--0----0-0-------8-7-7~---|

~01:33 - 2 veces
|-----------------------------------------------------------|
|-----------------------------------------------------------|	
|---4------------4-----------5-----------5------------------| 	
|---3------------3-----------5-----------5------------------|
|---2--2--2-2--2-2--2-2-2-2--3-2--2-2--2-3-------8-7--------|
|------0--0-0--0----0-0-0-0----0--0-0--0----0-0-------8-7---|

~01:47 - 2 veces
|-----------------------------------------------------------------------|
|-----------------------------------------------------------------------| 
|---4---------------4---------------5---------------5-------------------|
|---3---------------3---------------5---------------5-------------------|
|---2---------------2---------------3---------------3--------8-7--------|
|------0-0-000-0-0-----0-0-000-0-0-----0-0-000-0-0-----0-0--------8-7---|

~02:01
|-------------------------------------------|
|-------------------------------------------|	
|-------------------------------------------|
|--------------------------------2-3--------|
|---------------------------2-2-------2-3---|
|---0-0-0-0-0----0-0-1-0-1--0-0-------------|


~02:08 - solo...
|---------------------------------------------------|
|---------------------------------------------------|	
|-----------------------------7-8-9~---10-9---------|
|------------7-8-9~---7-9-10-----------------10-9---|
|---/7-9-10-----------------------------------------|
|---------------------------------------------------|

~02:12
|---------------------------------------13-12----------|
|-----------------------------10-11-12---------13-12---|
|-----------7-8-9~---9-11-12---------------------------|
|---7-9-10---------------------------------------------|
|------------------------------------------------------|
|------------------------------------------------------|

~02:15
|-------------17-18-19~--19p17p15--17p15p14---------------|
|---15-17-18---------------------------------15/17--17~---|
|---------------------------------------------------------|
|---------------------------------------------------------|
|---------------------------------------------------------|
|---------------------------------------------------------|

~02:18 - 2 veces
|----------------------------------------------|
|----------------------------------------------|
|---9-------9/10-------10/12-------10-----9~---|
|---9-------9/10-------10/12-------10-----9~---|
|---7--0-0--7/8---0-0---8/10--0-0---8--0--7~---|
|----------------------------------------------|

~02:25
|------------------------------------------------------|
|------------------------------------------------------|
|------------------------------7-9-10-------7-9-10-9---|
|------7-9-10-------7-9-10--0----------0-0-------------|
|---0----------0-0-------------------------------------|
|------------------------------------------------------|


~02:31 - (agregé algunas notas, queda mejor y esta bueno para practicar)
|---------------------------------------------------------------------------|
|---------------------------------------------------------------------------|
|-------------------------------------------7---9---10-------7---9---10-9---|	
|--------7---9---10-------7---9---10---0-0----0---0-----0-0----0---0--------|
|---0-0----0---0-----0-0----0---0-------------------------------------------|
|---------------------------------------------------------------------------|

~02:38
|----------------------------------------------------------------------|
|-----------10/12~----------10/13~-----------15/17~-----------15/18~---|
|---------9---------------9---------------14---------------14----------|
|------10--------------10--------------15---------------15-------------|
|---12--------------12--------------17---------------17----------------|
|----------------------------------------------------------------------|

~02:44 - (esta cuerda creo que es asi, se me rompió hace un rato)
|---17-15-13\12--15-13-12\10------------------------------|
|-----------------------------13-11-10----10--------------|
|--------------------------------------12----10-9----9~---|
|-------------------------------------------------12------|
|---------------------------------------------------------|
|---------------------------------------------------------|

lo que está entre 02:49 y 02:51 no se que es.. mando fruta
|-------------15-16-17-17~~---|
|---15-16-17------------------|
|-----------------------------|
|-----------------------------|
|-----------------------------|
|-----------------------------|

~02:51
|--------------------------------------------------------|
|--------------------------------------------------------|
|-------9---12~------------------------------------------|
|---7/9---9-----------------------7---10~------7---10~---|
|--------------------7---10~--5/7---7------5/7---7-------|
|----------------5/7---7---------------------------------|

~02:58
|--------------------------------------------------------|
|--------------------------------------------------------|
|--------------------------------------------------------|
|---------------------------------7---10~------7---10~---|
|-------7---10~------7---10~--5/7---7------5/7---7-------|
|---5/7---7------5/7---7---------------------------------|

~03:05
|----------------------------------|
|----------------------------------|
|----------------------------------|
|---7-9-10--7-9-10-----------------|
|-------------------5-7-8--5-7-8---|
|----------------------------------|

~03:12
|--------------------------------------------------------|
|---10~-10~-10~-------------12~-12~-12~------------------|
|--------------------------------------------------------|
|----------------7~-7~-7~----------------7~-7~-7~--------|
|--------------------------------------------------------|
|--------------------------------------------------------|

~03:20
|-----------------------------------------------------|
|---15~-15~-15~---------------17~-17~-17~-------------|
|-----------------------------------------------------|
|----------------10~-10~-10~----------------12~-12\---|
|-----------------------------------------------------|
|-----------------------------------------------------|

~03:27
|----------------------------------|
|----------------------------------|
|----------------------------------|
|---7-9-10--7-9-10-----------------|
|-------------------5-7-8--5-7-8---|
|----------------------------------|

~03:34
|----------------------------------13-13-13-13--10-10-10-10--12~//---|
|---10~--12-12-12-12--10-10-10-10------------------------------------|
|--------------------------------------------------------------------|
|--------------------------------------------------------------------|
|--------------------------------------------------------------------|
|--------------------------------------------------------------------|

~03:41 - 2 veces
|----------------------------------------------|
|----------------------------------------------|	
|---9-------9/10-------10/12-------10-----9\---|   	
|---9-------9/10-------10/12-------10-----9\---|
|---7--0-0--7/8---0-0---8/10--0-0---8--0--7\---|
|----------------------------------------------|

~03:48 - 2 veces
|-----------------------------------------------------------------------|
|-----------------------------------------------------------------------|
|-------------------------------------------2-------5-------2-------5---|
|---------2-------5-------2-------5---0-2-3---0-2-3---0-2-3---0-2-3-----|
|---0-2-3---0-2-3---0-2-3---0-2-3---------------------------------------|
|-----------------------------------------------------------------------|

~04:05 - 3 veces
|-------------------------------------------------------|
|-------------------------------------------------------|
|---15--------14------------15--------14--------12/14---|
|---15--------14------------15--------14--------12/14---|
|---13--0000--12--00000000--13--0000--12--0000--10/12---|
|-------------------------------------------------------|

~04:14 - 2 veces
|--------------------------------------------------|
|--------------------------------------------------|
|---9--------9/10--------10/12--------10------9~---|
|---9--------9/10--------10/12--------10------9~---|
|---7--0000--7/8---0000---8/10--0000--8---00--7~---|
|--------------------------------------------------|


~04:21 - 4 veces
|------------------------------------------------------|
|------------------------------------------------------|
|------------------------------------------------------|
|-------------------------------2----------2-----------|
|---8-8-7-7---------------------2----------2-----------|
|------------8-8-7-7~\--000000--0--000000--0--000000---|

~04:35
|------------------------------------------------------------------------------|
|------------------------------------------------------------------------------|
|-------------------4------------4-----------5-----------5---------------------|
|-------------------3------------3-----------5-----------5---------------------|
|---8-7--------2--2-2--2--2-2--2-2--2-2-2-2--3-2--2-2--2-3-------8-7-----------|
|--------8-7~--0--0----0--0-0--0----0-0-0-0----0--0-0--0----0-0-------8-7-7~---|

~04:44
|-----------------------------------------------------------|
|-----------------------------------------------------------|
|-------------4-----------5-----------5---------------------|
|-------------3-----------5-----------5---------------------|
|---2--2-2--2-2--2-2-2-2--3-2--2-2--2-3-------8-7-----------|
|---0--0-0--0----0-0-0-0----0--0-0--0----0-0-------8-7-7~---|

~04:51 - 2 veces
|-----------------------------------------------------------|
|-----------------------------------------------------------|	
|---4------------4-----------5-----------5------------------| 	
|---3------------3-----------5-----------5------------------|
|---2--2--2-2--2-2--2-2-2-2--3-2--2-2--2-3-------8-7--------|
|------0--0-0--0----0-0-0-0----0--0-0--0----0-0-------8-7---|

~05:05 - 2 veces
|-----------------------------------------------------------------------|
|-----------------------------------------------------------------------|   
|---4---------------4---------------5---------------5-------------------|   
|---3---------------3---------------5---------------5-------------------|
|---2---------------2---------------3---------------3--------8-7--------|
|------0-0-000-0-0-----0-0-000-0-0-----0-0-000-0-0-----0-0--------8-7---|

~05:19
|----------------------------|
|----------------------------|
|----------------------------|
|----------------------------|
|----------------------------|
|---0-0-0-0-0----0-0-1-0-1---|

			  _____
			 | FIN |
			  ----- 
Tap to rate this tab
 
# A B C D E F G H I J K L M N O P Q R S T U V W X Y Z