Song name
# A B C D E F G H I J K L M N O P Q R S T U V W X Y Z

Misc Unsigned Bands - Crisis Journey - Techno Fish tab

-------------------------------------------------|
-------------------------------------------------|
-------------------------------------------------|
-------------------------5-5-5-5-4-5--5-5-5-4-5--|
-5-5-5-5-4-5--4-4-4-5-4--3-3-3-3-2-3--3-3-3-2-3--|
-3-3-3-3-2-3--3-3-3-2-3--------------------------|

-------------------------------------------------|
-------------------------------------------------|
-------------------------------------------------|
-------------------------7-7-7-7-7-7-7-7-7-7-----|
-5-5-5-5-4-5--5-5-5-4-5--5-5-5-5-5-5-5-5-5-5-----|
-3-3-3-3-2-3--3-3-3-2-3--------------------------|

-------------------------------------------------|
-------------------------------------------------|
-------------------------------------------------|
-------------------------5-5-5-5-4-5--5-5-5-4-5--|
-5-5-5-5-4-5--4-4-4-5-4--3-3-3-3-2-3--3-3-3-2-3--|
-3-3-3-3-2-3--3-3-3-2-3--------------------------|

--------------------------------------------------------|
--------------------------------------------------------|
--------------------------------------------------------|
-------------------------7-7-7-7-9-9-11-11-11-11-12-12--|
-5-5-5-5-4-5--5-5-5-4-5--5-5-5-5-7-7-9--9--9--9--10-10--|
-3-3-3-3-2-3--3-3-3-2-3---------------------------------|
                                                 Hey

-------------------------------------------------|
-------------------------------------------------|
-------------------------------------------------|
-------------------------5-5-5-5-4-5--5-5-5-4-5--|
-5-5-5-5-4-5--4-4-4-5-4--3-3-3-3-2-3--3-3-3-2-3--|
-3-3-3-3-2-3--3-3-3-2-3--------------------------|

-------------------------------------------------|
-------------------------------------------------|
-------------------------------------------------|
-------------------------7-7-7-7-7-7-7-7-7-7-----|
-5-5-5-5-4-5--5-5-5-4-5--5-5-5-5-5-5-5-5-5-5-----|
-3-3-3-3-2-3--3-3-3-2-3--------------------------|

-------------------------------------------------|
-------------------------------------------------|
-------------------------------------------------|
-------------------------5-5-5-5-4-5--5-5-5-4-5--|
-5-5-5-5-4-5--4-4-4-5-4--3-3-3-3-2-3--3-3-3-2-3--|
-3-3-3-3-2-3--3-3-3-2-3--------------------------|
If You Wanna Be A Fish Be A Techno Fish! He Comes From London, South London!

--------------------------------------------------------|
--------------------------------------------------------|
--------------------------------------------------------|
-------------------------7-7-7-7-9-9-11-11-11-11-12-12--|
-5-5-5-5-4-5--5-5-5-4-5--5-5-5-5-7-7-9--9--9--9--10-10--|
-3-3-3-3-2-3--3-3-3-2-3---------------------------------|
He Likes To Rave, & Misbehave! With His Best Friend, His Best Friend Dave Yeah!

-------------------------------------------------|
-------------------------------------------------|
-------------------------------------------------|
-------------------------5-5-5-5-4-5--5-5-5-4-5--|
-5-5-5-5-4-5--4-4-4-5-4--3-3-3-3-2-3--3-3-3-2-3--|
-3-3-3-3-2-3--3-3-3-2-3--------------------------|

-------------------------------------------------|
-------------------------------------------------|
-------------------------------------------------|
-------------------------7-7-7-7-7-7-7-7-7-7-----|
-5-5-5-5-4-5--5-5-5-4-5--5-5-5-5-5-5-5-5-5-5-----|
-3-3-3-3-2-3--3-3-3-2-3--------------------------|

-------------------------------------------------|
-------------------------------------------------|
-------------------------------------------------|
-------------------------5-5-5-5-4-5--5-5-5-4-5--|
-5-5-5-5-4-5--4-4-4-5-4--3-3-3-3-2-3--3-3-3-2-3--|
-3-3-3-3-2-3--3-3-3-2-3--------------------------|
Techno Fish Na Na Na! Na Na Na Na Na! Techno Fish Na Na Na! Na Na Na Na Na!

--------------------------------------------------------|
--------------------------------------------------------|
--------------------------------------------------------|
-------------------------7-7-7-7-9-9-11-11-11-11-12-12--|
-5-5-5-5-4-5--5-5-5-4-5--5-5-5-5-7-7-9--9--9--9--10-10--|
-3-3-3-3-2-3--3-3-3-2-3---------------------------------|
Techno Fish Na Na Na! Na Na Na Na Na! Techno Fish! Na Na Na Na Na Na Na!

-------------------------------------------------|
-------------------------------------------------|
-------------------------------------------------|
-------------------------5-5-5-5-4-5--5-5-5-4-5--|
-5-5-5-5-4-5--4-4-4-5-4--3-3-3-3-2-3--3-3-3-2-3--|
-3-3-3-3-2-3--3-3-3-2-3--------------------------|

-------------------------------------------------|
-------------------------------------------------|
-------------------------------------------------|
-------------------------7-7-7-7-7-7-7-7-7-7-----|
-5-5-5-5-4-5--5-5-5-4-5--5-5-5-5-5-5-5-5-5-5-----|
-3-3-3-3-2-3--3-3-3-2-3--------------------------|

-------------------------------------------------|
-------------------------------------------------|
-------------------------------------------------|
-------------------------5-5-5-5-4-5--5-5-5-4-5--|
-5-5-5-5-4-5--4-4-4-5-4--3-3-3-3-2-3--3-3-3-2-3--|
-3-3-3-3-2-3--3-3-3-2-3--------------------------|
He Changes Colour, Red Green & Blue! He Changes Colour, Right In Front Of You!

--------------------------------------------------------|
--------------------------------------------------------|
--------------------------------------------------------|
-------------------------7-7-7-7-9-9-11-11-11-11-12-12--|
-5-5-5-5-4-5--5-5-5-4-5--5-5-5-5-7-7-9--9--9--9--10-10--|
-3-3-3-3-2-3--3-3-3-2-3---------------------------------|
He Likes Life, On The Club Scene! There's No Club That He Hasn't Been Yeah!

-------------------------------------------------|
-------------------------------------------------|
-------------------------------------------------|
-------------------------5-5-5-5-4-5--5-5-5-4-5--|
-5-5-5-5-4-5--4-4-4-5-4--3-3-3-3-2-3--3-3-3-2-3--|
-3-3-3-3-2-3--3-3-3-2-3--------------------------|

-------------------------------------------------|
-------------------------------------------------|
-------------------------------------------------|
-------------------------7-7-7-7-7-7-7-7-7-7-----|
-5-5-5-5-4-5--5-5-5-4-5--5-5-5-5-5-5-5-5-5-5-----|
-3-3-3-3-2-3--3-3-3-2-3--------------------------|

-------------------------------------------------|
-------------------------------------------------|
-------------------------------------------------|
-------------------------5-5-5-5-4-5--5-5-5-4-5--|
-5-5-5-5-4-5--4-4-4-5-4--3-3-3-3-2-3--3-3-3-2-3--|
-3-3-3-3-2-3--3-3-3-2-3--------------------------|
Techno Fish Na Na Na! Na Na Na Na Na! Techno Fish Na Na Na! Na Na Na Na Na!

--------------------------------------------------------|
--------------------------------------------------------|
--------------------------------------------------------|
-------------------------7-7-7-7-9-9-11-11-11-11-12-12--|
-5-5-5-5-4-5--5-5-5-4-5--5-5-5-5-7-7-9--9--9--9--10-10--|
-3-3-3-3-2-3--3-3-3-2-3---------------------------------|
Techno Fish Na Na Na! Na Na Na Na Na! Techno Fish! Na Na Na Na Na Na Na!

-------------------------------------------------|
-------------------------------------------------|
-12-12-12-12-11-12---12-12-12-11-12--------------|
-------------------------------------------------|
-------------------------------------------------|
-------------------------------------------------|

-------------------------------------------------|
-12-12-12-12-10-12---12-12-12-10-12--------------|
-------------------------------------------------|
-------------------------------------------------|
-------------------------------------------------|
-------------------------------------------------|

-------------------------------------------------|
-------------------------------------------------|
-12-12-12-12-11-9---9-9-9-11-12------------------|
-------------------------------------------------|
-------------------------------------------------|
-------------------------------------------------|

-10-10-10-10-10--10-10--10-10-10-10-10-----------|
-------------------------------------------------|
-------------------------------------------------|
-------------------------------------------------|
-------------------------------------------------|
-------------------------------------------------|

-------------------------------------------------|
----------------10---------------10--------------|
-12-12-12-12-11------12-12-12-11-----------------|
-------------------------------------------------|
-------------------------------------------------|
-------------------------------------------------|

----------------10---------------10--------------|
-12-12-12-12-10------12-12-12-10-----------------|
-------------------------------------------------|
-------------------------------------------------|
-------------------------------------------------|
-------------------------------------------------|

-------------------------------------------------|
-------------------------------------------------|
-12-12-12-12-11-9---9-9-9-11-12------------------|
-------------------------------------------------|
-------------------------------------------------|
-------------------------------------------------|

-10-10-10-10-12-12-12-12-14-14-14-14-15--15------|
-------------------------------------------------|
-------------------------------------------------|
-------------------------------------------------|
-------------------------------------------------|
-------------------------------------------------|

-------------------------------------------------|
-------------------------------------------------|
-------------------------------------------------|
-------------------------5-5-5-5-4-5--5-5-5-4-5--|
-5-5-5-5-4-5--4-4-4-5-4--3-3-3-3-2-3--3-3-3-2-3--|
-3-3-3-3-2-3--3-3-3-2-3--------------------------|

-------------------------------------------------|
-------------------------------------------------|
-------------------------------------------------|
-------------------------7-7-7-7-7-7-7-7-7-7-----|
-5-5-5-5-4-5--5-5-5-4-5--5-5-5-5-5-5-5-5-5-5-----|
-3-3-3-3-2-3--3-3-3-2-3--------------------------|

-------------------------------------------------|
-------------------------------------------------|
-------------------------------------------------|
-------------------------5-5-5-5-4-5--5-5-5-4-5--|
-5-5-5-5-4-5--4-4-4-5-4--3-3-3-3-2-3--3-3-3-2-3--|
-3-3-3-3-2-3--3-3-3-2-3--------------------------|
Techno Fish Na Na Na! Na Na Na Na Na! Techno Fish Na Na Na! Na Na Na Na Na!

--------------------------------------------------------|
--------------------------------------------------------|
--------------------------------------------------------|
-------------------------7-7-7-7-9-9-11-11-11-11-12-12--|
-5-5-5-5-4-5--5-5-5-4-5--5-5-5-5-7-7-9--9--9--9--10-10--|
-3-3-3-3-2-3--3-3-3-2-3---------------------------------|
Techno Fish Na Na Na! Na Na Na Na Na! Techno Fish! Na Na Na Na Na Na Na!

-------------------------------------------------|
-------------------------------------------------|
-12-12-12-12-11-12---12-12-12-11-12--------------|
-------------------------------------------------|
-------------------------------------------------|
-------------------------------------------------|

-------------------------------------------------|
-12-12-12-12-10-12---12-12-12-10-12--------------|
-------------------------------------------------|
-------------------------------------------------|
-------------------------------------------------|
-------------------------------------------------|

-------------------------------------------------|
-------------------------------------------------|
-12-12-12-12-11-9---9-9-9-11-12------------------|
-------------------------------------------------|
-------------------------------------------------|
-------------------------------------------------|

-10-10-10-10-10--10-10--10-10-10-10-10-----------|
-------------------------------------------------|
-------------------------------------------------|
-------------------------------------------------|
-------------------------------------------------|
-------------------------------------------------|

-------------------------------------------------|
----------------10---------------10--------------|
-12-12-12-12-11------12-12-12-11-----------------|
-------------------------------------------------|
-------------------------------------------------|
-------------------------------------------------|

----------------10---------------10--------------|
-12-12-12-12-10------12-12-12-10-----------------|
-------------------------------------------------|
-------------------------------------------------|
-------------------------------------------------|
-------------------------------------------------|

-------------------------------------------------|
-------------------------------------------------|
-12-12-12-12-11-9---9-9-9-11-12------------------|
-------------------------------------------------|
-------------------------------------------------|
-------------------------------------------------|

-10-10-10-10-12-12-12-12-14-14-14-14-15--15------|
-------------------------------------------------|
---------------------------------------------12--|
-------------------------------------------------|
-------------------------------------------------|
-------------------------------------------------|

More CJ tabs coming soon :D
email me if ya got requests - fredchandler@btinternet.com
Tap to rate this tab
 
# A B C D E F G H I J K L M N O P Q R S T U V W X Y Z