Song name
# A B C D E F G H I J K L M N O P Q R S T U V W X Y Z

Misc Unsigned Bands - Shadow In The Dark - Requiem tab

|-----------------------------------------------------------------------------------------|
|-----------------------------------------------------------------------------------------|
|-----------------------------------------------------------------------------------------|
|-------9-------10-------12-------10-------9~~------9-------10-------12-------10-------9--|
|-12-12---12-12----12-12----12-12----12-12----11-11---11-11----11-11----11-11----11-11----|
|-----------------------------------------------------------------------------------------|

|------------------------------------------------------------------------------|
|------------------------------------------------------------------------------|
|------------------------------------------------------------------------------|
|-----9-----10-----12-----10-----9~~------9-------10-------12-10/9/10/9/7~~~~--|
|-9-9---9-9----9-9----9-9----9-9----10-10---10-10----10-10---------------------|
|------------------------------------------------------------------------------|


|-------------------------------|
|-------------------------------|
|-------------------------------|
|-----9-------------9-----------|
|---7---10-9-10---7---10-9~~~~--|
|-0~~~~~~~~~~~~~0~~~~~~~~~~~~~--|


|-------------------------------|
|-------------------------------|
|-------------------------------|
|-----9-------------9-----------|
|---7---10-9-10---7---10-9~~~~--|
|-0~~~~~~~~~~~~~0~~~~~~~~~~~~~--|

|------------------------------------|
|------------------------------------|
|-----------------------10-------9---|
|---9-7---10-9----9-7-9----9-7-9---9-|
|-7-----9------10--------------------|
|------------------------------------|

|------------------------------------|
|------------------------------------|
|-----------------------10-------9---|
|---9-7---10-9----9-7-9----9-7-9---9-|
|-7-----9------10--------------------|
|------------------------------------|
Tap to rate this tab
# A B C D E F G H I J K L M N O P Q R S T U V W X Y Z