Song name
# A B C D E F G H I J K L M N O P Q R S T U V W X Y Z

Misc Unsigned Bands - B Raymond And The Voicettes - Old Man Marley tab

Help us improve GuitareTab! Take a short survey!
andy c 29/3/09

old man marley; this is the song used in the brylcreem effortless advert.

e|---------------------------------------------------------------------------------|
B|---------------------------------------------------------------------------------|
G|---------------------------------------------------------------------------------|
D|---------------0-----------8------------------------8----------------------------|
A|---------------------6---------------8-------6------------------8----------------|
E|-----6-----8------------------6-------------------------6------------------------|

e|--------------------------------------------------------------------------------|
B|--------------------------------------------------------------------------------|
G|--------------------------------------------------------------------------------|
D|-----8-----------------------8-------------------------0------------------------|
A|-6-------------------8--------6-------------------------------------------------|
E|----------6------------------------------6--------8-----------------------------|

e|--------------------------------9---8--6----------------------------------------|
B|--------------------------------------------------------------------------------|
G|-----7--------------------------------------------------------------------------|
D|-----8--------------------------------------------------------------------------|
A|-----8--------------------------------------------------------------------------|
E|-----6--------------------------------------------------------------------------|
Related for B Raymond And The Voicettes - Old Man Marley tab