Song name
# A B C D E F G H I J K L M N O P Q R S T U V W X Y Z

Misc Unsigned Bands - Stringless Puppets - Burning Toad tab

This is Burning Toad by Stringless Puppets. It is my first tab.
It is also our band's first song, so enjoy. Tabbed by supermanny1.


Intro

e---------------------------|
b---------------------------|
g---------------------------| 2x
d---------------------------|
a--1(7x)-4(7x)-3(7x)-6------|(7x)
e---------------------------|

Verse One
e--------------------------------|
b--------------------------------|
g--------------------------------| 4x
d-3333333-6666666-5555555-8-7-6--|
a-1111111-4444444-3333333-6-5-4--|
e--------------------------------|

Chorus
e---------------------------------|
b---------------------------------|
g---------------------------------| 4x
d---------------------------------|
a-3333333-6666666-5555555-8-9-10--|
e-1111111-4444444-3333333-6-7-8---|

Verse Two
e----------------------------------|
b----------------------------------|
g----------------------------------| 4x
d-4444444-5555555-4444444-10-9-10--|
a-2222222-3333333-2222222-8--7-8---|
e----------------------------------|

Rythm for Solo
e--------------------------------------------------------------|
b--------------------------------------------------------------|
g--------------------------------------------------------------|
d-3333333-6666666-5555555-8-7-6-3333333-6666666-5555555-8-9-10-|
a-1111111-4444444-3333333-6-5-4-1111111-4444444-3333333-6-7-8--|
e--------------------------------------------------------------|

e--------|
b--------|
g--------| 4x
d-8-9-10-|
a-6-7-8--|
e--------|

Solo
e-------------------------------------------------------------|
b-------------------------------------------------------12-13-|
g-10(7x)-13(7x)-12(7x)-15-14-13-10(7x)-13(7x)-12(7x)-15-------|
d-------------------------------------------------------------|
a-------------------------------------------------------------|
e-------------------------------------------------------------|

e----------|
b----12-13-|
g-15-------| 4x
d----------|
a----------|
e----------|

Outro
e--------------------------------|
b--------------------------------|
g--------------------------------| 2x
d--------------------------------|
a-3333333-6666666-8888888-7-6-5--|
e-1111111-4444444-6666666-5-4-3--|

e-----------------------------------|
b-----------------------------------|
g-----------------------------------|
d-------------888-------------3-4-5-|
a-333-666-555-666-333-666-555-1-2-3-|
e-111-444-333-----111-444-333-------|


Intro
Verse One
Chorus
Verse Two
Chorus
Solo
Verse Two
Outro
Tap to rate this tab
 
# A B C D E F G H I J K L M N O P Q R S T U V W X Y Z