Song name
# A B C D E F G H I J K L M N O P Q R S T U V W X Y Z

Misc Unsigned Bands - 7 Days Away - Final Cry tab

This is the acoustic song by the band "7 Days Away" called "Final Cry"

(Verse 1)
------------------------------------------------------------------|
------3------5-------8------9-------------------------------------|
----0------0-------7------7---------------------------------------|
---2-3----4-4-----7-7----7-7--------------------------------------|
--3------5-------7------7-----------------------------------------|
------------------------------------------------------------------|

Chorus
-------------------------------------------------------------|
-------------------------------------------------------------|
-------------------------------------------------------------|l
-------------------------------------------------------------|
-------------------------------------------------------------|
-------------------------------------------------------------|l

-------------------------------------------------------------|
-------------------------------------------------------------|
-------------------------------------------------------------|l
--5------10-----12------12-----------------------------------|
-------------------------------------------------------------|
-------------------------------------------------------------|l

--5------10-----12------10-----------------------------------|
-------------------------------------------------------------|
-------------------------------------------------------------|l
--5------10-----12------10-----------------------------------|
-------------------------------------------------------------|
-------------------------------------------------------------|l
Tap to rate this tab
# A B C D E F G H I J K L M N O P Q R S T U V W X Y Z