Song name
# A B C D E F G H I J K L M N O P Q R S T U V W X Y Z

Misc Unsigned Bands - Crisis Journey - Crash And Burnyou Will Learn tab

---------------------------------------------------|
---------------------------------------------------|
---------------------------------------------------|
---------------------------------------------------|
-10-10-10-10-10-10-10-10-12-12-12-12-12-12-12-12---|
-8--8--8--8--8--8--8--8--10-10-10-10-10-10-10-10---|
                                                   |--X4
---------------------------------------------------|
---------------------------------------------------|
---------------------------------------------------|
-12-12-12-12-12-12-12-12--9-9-9--------------------|
-10-10-10-10-10-10-10-10--7-7-7--12-12-12----------|
---------------------------------10-10-10----------|
                        PM...    .....

-----
-----
-----
-----
-10--
-8---

-----------------------------------------------|
-----------------------------------------------|
-----------------------------------------------|
-----------------------------------------------|
-----10-10-----10-10-------12-12-------12-12---|
-8-8-------8-8-------10-10-------10-10---------|
                                               |--X2
-----------------------------------------------|
-----------------------------------------------|
-----------------------------------------------|
-------12-12-------12-12-----9-9---------------|
-10-10-------10-10-------7-7-----------12-12---|
---------------------------------10-10---------|

---------------------------------------------------|
---------------------------------------------------|
---------------------------------------------------|
---------------------------------------------------|
-10-10-10-10-10-10-10-10-12-12-12-12-12-12-12-12---|
-8--8--8--8--8--8--8--8--10-10-10-10-10-10-10-10---|
                                                   |--X2
---------------------------------------------------|
---------------------------------------------------|
---------------------------------------------------|
-12-12-12-12-12-12-12-12--9-9-9--------------------|
-10-10-10-10-10-10-10-10--7-7-7--12-12-12----------|
---------------------------------10-10-10----------|
                        PM...    .....

-----
-----
-----
-----
-10--
-8---

-------------------------------------------------|
-------------------------------------------------|
-------------------------------------------------|
-5-5-x-x-x-------------7-7-x-x-x--9-9-9--7-7-7---|--X4
-3-3-x-x-x--5-5-x-x-x--5-5-x-x-x--7-7-7--5-5-5---|
------------3-3-x-x-x----------------------------|

-----
-----
-----
--5--
--3--
-----

-----------------------------------------------|
-----------------------------------------------|
-----------------------------------------------|
-----------------------------------------------|
-----10-10-----10-10-------12-12-------12-12---|
-8-8-------8-8-------10-10-------10-10---------|
                                               |--X2
-----------------------------------------------|
-----------------------------------------------|
-----------------------------------------------|
-------12-12-------12-12-----9-9---------------|
-10-10-------10-10-------7-7-----------12-12---|
---------------------------------10-10---------|

---------------------------------------------------|
---------------------------------------------------|
---------------------------------------------------|
---------------------------------------------------|
-10-10-10-10-10-10-10-10-12-12-12-12-12-12-12-12---|
-8--8--8--8--8--8--8--8--10-10-10-10-10-10-10-10---|
                                                   |--X2
---------------------------------------------------|
---------------------------------------------------|
---------------------------------------------------|
-12-12-12-12-12-12-12-12--9-9-9--------------------|
-10-10-10-10-10-10-10-10--7-7-7--12-12-12----------|
---------------------------------10-10-10----------|
                        PM...    .....

-----
-----
-----
-----
-10--
-8---

-------------------------------------------------|
-------------------------------------------------|
-------------------------------------------------|
-5-5-x-x-x-------------7-7-x-x-x--9-9-9--7-7-7---|--X4
-3-3-x-x-x--5-5-x-x-x--5-5-x-x-x--7-7-7--5-5-5---|
------------3-3-x-x-x----------------------------|

-----
-----
-----
--5--
--3--
-----

-------------------------------------------------|
-------------------------------------------------|
-------------------------------------------------|
----------------12----9-9-9----------------------|
-----10---12----10----7-7-7--12-12-12------------|
-----8----10-----------------10-10-10------------|

---------------------------------------------------|
---------------------------------------------------|
---------------------------------------------------|
---------------------------------------------------|
-10-10-10-10-10-10-10-10-12-12-12-12-12-12-12-12---|
-8--8--8--8--8--8--8--8--10-10-10-10-10-10-10-10---|
                                                   |--X4
---------------------------------------------------|
---------------------------------------------------|
---------------------------------------------------|
-12-12-12-12-12-12-12-12--9-9-9--------------------|
-10-10-10-10-10-10-10-10--7-7-7--12-12-12----------|
---------------------------------10-10-10----------|
                        PM...    .....

-----
-----
-----
-----
-10--
-8---

-------------------------------------------------|
-------------------------------------------------|
-------------------------------------------------|
-5-5-x-x-x-------------7-7-x-x-x--9-9-9--7-7-7---|--X4
-3-3-x-x-x--5-5-x-x-x--5-5-x-x-x--7-7-7--5-5-5---|
------------3-3-x-x-x----------------------------|

---------------------------------------------------|
---------------------------------------------------|
---------------------------------------------------|
-7-7-x-x-x-------------9-9-x-x-x--11-11-11--9-9-9--|--X2
-5-5-x-x-x--7-7-x-x-x--7-7-x-x-x--9--9--9---7-7-7--|
------------5-5-x-x-x------------------------------|

-----
-----
-----
--7--
--5--
-----

More CJ tabs coming soon :D
email me if ya got requests - fredchandler@btinternet.com
Tap to rate this tab
 
# A B C D E F G H I J K L M N O P Q R S T U V W X Y Z