Guitaretab - guitar tabs
Song name
# A B C D E F G H I J K L M N O P Q R S T U V W X Y Z

Misc Unsigned Bands - Famous By Friday - Far Too Long tab

Guitar One: Joe Fred
Guitar Two: Ryan Soldat

Intro:
Guitar One:
E---------------------------]--------------]
B---------------------------]--------------]
G---------------------------]--------------]
D--------5-----6-----5------]------------0-] end with
A-5-8-5-8-8-5-8-8-5-8-8-5---]-5p3p0------0-]
D---------------------------]------5p3p0-0-] 

Guitar Two:
E-----------]
B-----------]
G-----------] 2x
D-0-8-3-5-7-]
A-0-8-3-5-7-]
D-0-8-3-5-7-]


Verse:
[ Tab from: http://www.guitaretab.com/m/misc-unsigned-bands/182222.html ]
Guitar One:
E----------------------------------------------------]
B----------------------------------------------------]
G----------------------------------------------------] play once
D-0-0---000-0-8-8---888-8-3-3---333-3-5-5--55-7-7-77-]
A-0-0---000-0-8-8---888-8-3-3---333-3-5-5--55-7-7-77-]
D-0-0---000-0-8-8---888-8-3-3---333-3-5-5--55-7-7-77-]
        ... .       ... .       ... .      ..     ..

Pre-Chorus:
Same as verse but open

Chorus:
E-------------------]
B-------------------]
G-------------------] 2x
D-0-3-5-8-7-5-7-5-3-]
A-0-3-5-8-7-5-7-5-3-]
D-0-3-5-8-7-5-7-5-3-]
          . . . . .

Intro: 1x

Verse: 1x

Bridge/Guitar Solo:

Guitar One:
E-----------------]
B-----------------]
G-7-10-5-3-5------]
D-x-x--x-x-x------] 2x
A-5-8--3-1-3------]
D-----------------]

Guitar Two: Chorus

Chorus: 2x

Outro: Intro
Related for Famous By Friday - Far Too Long tab
Advertisement will be closed in 10 seconds