Song name
# A B C D E F G H I J K L M N O P Q R S T U V W X Y Z

Misc Unsigned Bands - Fictionjunction Yuuka - Akatsuki No Kuruma tab

-------3-1-------1--3-------------|
---3-4----4------3--4-------------|
--3--------5----------------------|
----------------------------------|
-3-----------1--------------------|
---------------1------------------|

--------3-1------3-1--------------|
----3-4----4---------3------------|
---3--------5--3------3-----------|
----------------------------------|
-3------------3-------------------|
----------------------------------|

tabbed by: Eva Maureen Villar (evamaureen_01@yahoo.com)
Tap to rate this tab
# A B C D E F G H I J K L M N O P Q R S T U V W X Y Z