Song name
# A B C D E F G H I J K L M N O P Q R S T U V W X Y Z

Misc Unsigned Bands - Virt - Blood Of Ganon tab

#----------------------------------PLEASE NOTE---------------------------------#
#This file is the author's own work and represents their interpretation of the #
#song. You may only use this file for private study, scholarship, or research. #
#------------------------------------------------------------------------------##
Virt - Blood of Ganon - http://www.biglionmusic.com/

Damn, this took a long time to tab! This is 'Blood of Ganon' by Virt of 
VGMix, up to the point where the hip-hop 'file select' theme kicks in at 
5:10. I haven't tabbed the ending, but I may get round to it one day.

I have put this into 3 guitar parts. Note that Guitar 3 doubles up as a bass 
guitar at times. Guitar 2 doubles up as brass. Guitar 1 is sometimes is 
piano and strings - these are all noted above the staves. Apologies if the 
rhythms are not clear from the tabs: if you download the powertab file it 
allows you to listen to the song and follow the tabs.

I have not tabbed some of the most intricate guitar parts, which appear 
mostly in the metal sections at the start - these are pretty much open to 
interpretation from the chords given.

If you have any questions/comments/corrections please email me at 
gooz_random [at] hotmail [dot] com.
- G Vohra (Apr 2009)


Gtr I (E A D G B E) - 'Lead 1'
Gtr II (E A D G B E) - 'Lead 2'
Gtr III (E A D G B E) - 'Rhythm'

00:00                           00:03
 4/4
  Gtr I
|--6--5------------|-----------|---------------|
|---------6-5------|-----------|---------------|
|--------------6-5-|-4-3-------|---------------|
|------------------|-----------|---------------|
|------------------|-----------|---------------|
|------------------|-----------|---------------|
|
| Gtr II
|------------------|-----------|---------------|
|------------------|-----------|---------------|
|-11-10------------|-----------|---------------|
|--------10-9------|-----------|---------------|
|--------------9-8-|-7-6-------|---------------|
|------------------|-----------|-6----5-7----6-|
|
| Gtr III
|------------------|-----------|---------------|
|------------------|-----------|---------------|
|------------------|-----------|---------------|
|------------------|-----------|---------------|
|--8--7------------|-----------|----9------9---|
|---------8-7--9-8-|-7-6-------|-6------7------|


00:06
|--------------|---------------|--------------|
|--------------|---------------|--------------|
|--------------|---------------|--------------|
|--------------|---------------|--------------|
|--------------|---------------|--------------|
|--------------|---------------|--------------|
|
|--------------|---------------|--------------|
|--------------|---------------|--------------|
|--------------|---------------|--------------|
|--------------|---------------|--------------|
|-5----4-7-----|---------------|-5----4-7-----|
|--------------|-6----5-7----6-|--------------|
|
|--------------|---------------|--------------|
|--------------|---------------|--------------|
|--------------|---------------|--------------|
|--------------|---------------|--------------|
|----9------9--|----9------9---|----9------9--|
|-7------7-----|-6------7------|-7------7-----|


00:16
  Gtr II
|--------------|--------------|-7----|
|--------------|-8--7--10--9--|------|
|-8--7--10--9--|--------------|------|
|--------------|--------------|------|
|--------------|--------------|------|
|--------------|--------------|------|
|
| Gtr III
|--------------|--------------|------|
|--------------|--------------|------|
|--------------|--------------|------|
|--------------|--------------|-0----|
|--------------|-1--0---3--2--|------|
|-2--1---4--3--|--------------|------|


(Heavy metal rhythm guitar: Drop D if it makes it any easier, although I am using standard tuning)
00:32                                        00:37
   7/8
    Gtr III
||---------------------||-------------------|---------------------|
||o-------------------o||-------------------|---------------------|
||---------------------||-------------------|---------------------|
||--0-0-1-1-0-3-0-6-5--||-0-0-1-1-0-3-0-5-6-|-0-0-8-0-0-7-0-0-5-1-|
||o-0-0-1-1-0-3-0-6-5-o||-0-0-1-1-0-3-0-5-6-|-0-0-8-0-0-7-0-0-5-1-|
||------------1---4-3--||-----------1---3-4-|---------------------|


00:39
                           4x
||-------------------------||
||o-----------------------o||
||-------------------------||
||-------------------------||
||o-----------8-8-8-11-10-o||
||--8-8-11-11--------------||


00:45
  Gtr I
  ~                         ~
|-------------------------|---------------------------|
|-------------------------|-4-------------(4)--6--4---|
|-5-------------(5)--3--5-|---------------------------|
|-------------------------|---------------------------|
|-------------------------|---------------------------|
|-------------------------|---------------------------|
| Gtr III
|-------------------------|---------------------------|
|-------------------------|---------------------------|
|-------------------------|---------------------------|
|-------------------------|---------------------------|
|-----------8-8--8--11-10-|-----------8-8--8--11-10---|
|-8-8-11-11---------------|-8-8-11-11-----------------|


00:50
  ~                           ~
|---------------------------|---------------------------|
|-3-------------(3)----4--3-|----------------------4----|
|---------------------------|-6-------------(6)-------6-|
|---------------------------|---------------------------|
|---------------------------|---------------------------|
|---------------------------|---------------------------|
|
|---------------------------|---------------------------|
|---------------------------|---------------------------|
|---------------------------|---------------------------|
|---------------------------|---------------------------|
|-----------8-8-----8-11-10-|-----------8-8-----8-11-10-|
|-8-8-11-11-----------------|-8-8-11-11-----------------|


                         Gtr I = Strings
00:53                    00:58
                           ~~                          ~~                    ~~
|-----------------------|-14--------------------|-15------------------|-13------------------|
|-----------------------|-----------------------|----13---------------|---------------------|
|-5---------------------|-----------------------|---------------------|----13---------------|
|-----------------------|-----------------------|---------------------|---------------------|
|-----------------------|-----------------------|---------------------|---------------------|
|-----------------------|-----------------------|---------------------|---------------------|
|
|-----------------------|-----------------------|---------------------|---------------------|
|-----------------------|-----------------------|---------------------|---------------------|
|-----------------------|----------4-4--4-7-6---|-----------4-4-4-7-6-|-----------4-4-4-7-6-|
|-----------------------|--4-4-7-7--------------|--4--4-7-7-----------|--4--4-7-7-----------|
|-----------8-8-8-11-10-|-----------------------|---------------------|---------------------|
|-8-8-11-11-------------|-----------------------|---------------------|---------------------|


01:03
      ~~                    ~~                    ~~                   ~
|-14------------------|-14------------------|---------------------|--------------------|
|----14---------------|---------------------|---------------------|--------------------|
|---------------------|----11---------------|-11-10---------------|-10-9---------------|
|---------------------|---------------------|---------------------|--------------------|
|---------------------|---------------------|---------------------|--------------------|
|---------------------|---------------------|---------------------|--------------------|
|
|---------------------|---------------------|---------------------|--------------------|
|---------------------|---------------------|---------------------|--------------------|
|-----------4-4-4-7-6-|-----------4-4-4-7-6-|-----------3-3-3-6-5-|----------2-2-2-5-4-|
|--4--4-7-7-----------|--4--4-7-7-----------|--3--3-6-6-----------|--2-2-5-5-----------|
|---------------------|---------------------|---------------------|--------------------|
|---------------------|---------------------|---------------------|--------------------|


01:09
|-------------------------------------|-------------------------------|-----------------------------|
|-10----10----10----10-10-10-10-10-10-|--9----9----9----9-9-9-9-9-9---|--8----8----8----8-8-8-8-8-8-|
|-------------------------------------|-------------------------------|-----------------------------|
|-------------------------------------|-------------------------------|-----------------------------|
|-------------------------------------|-------------------------------|-----------------------------|
|-------------------------------------|-------------------------------|-----------------------------|
|
|-------------------------------------|-------------------------------|-----------------------------|
|-------------------------------------|-------------------------------|-----------------------------|
|-------------------------------------|-------------------------------|-----------------------------|
|-13-13----13----13-------------------|-12-12---12---12---------------|-11-11---11---11-------------|
|-13-13----13----13-------------------|-12-12---12---12---------------|-11-11---11---11-------------|
|-11-11----11----11-------------------|-10-10---10---10---------------|--9--9----9----9-------------|


01:14                         (Phaser the first two times)
                                                       4x
|----------------------------||------------------------||
|----------------------------||o----------------------o||
|----------------------------||------------------------||
|----------------------------||------------------------||
|----------------------------||o----------------------o||
|----------------------------||------------------------||
|
|                                                      4x
|----------------------------||------------------------||
|----------------------------||o----------------------o||
|----------------------------||------------------------||
|-10-10-10-10-10-10-10-10-10-||------------------------||
|-10-10-10-10-10-10-10-10-10-||o---------2-2-2-5-4----o||
|--8--8--8--8--8--8--8--8--8-||--2-2-5-5---------------||


01:24
  Gtr III
|-------------------|--------------------||---------------------||---------------------|
|-------------------|--------------------||o-------------------o||---------------------|
|-------------------|--------------------||---------------------||---------------------|
|-----4-4-4-5-5-----|--------------------||---------------------||---------------------|
|---------------4-5-|-0-0-1-3---0-1-3-1--||o---------2-2-2-5-4-o||-----------------2-2-|
|-2-2---------------|---------2----------||--2-2-5-5------------||-2-2-1-1-4-4-3-3-----|


01:32
  Gtr I
        ^       ^       ^       ^         ^       ~    ^   ^   ^
|-------2-------3-------4-------5-|-------6-------7---10--12--14----|     (Ray harmonics here)
|---------------------------------|---------------------------------|
|---------------------------------|---------------------------------|
|---------------------------------|---------------------------------|
|---------------------------------|---------------------------------|
|---------------------------------|---------------------------------|
|
| Gtr III
|---------------------------------|---------------------------------|
|---------------------------------|---------------------------------|
|---------------------------------|---------------------------------|
|---------------------------------|---------------------------------|
|---------------------------------|---------------------------------|
|-2-2-2-2-2-2-2-2-2-2-2-2-2-2-2-2-|-2-2-2-2-2-2-2-2-----------------|


01:43
    Gtr III
4/4                    3x
||---------------------||-------------------|
||o-------------------o||-------------------|
||---------------------||-------------------|
||--\4-4-4-4-4-4-4-4---||-4-4-4-4-4-4-------|
||o-\4-4-4-4-4-4-4-4--o||-4-4-4-4-4-4-------|
||--\2-2-2-2-2-2-2-2---||-2-2-2-2-2-2-0-2-3-|


01:46 (Open to interpretation)        3x
||------------------------------------||---------------------------------|
||o----------------------------------o||---------------------------------|
||------------------------------------||---------------------------------|
||--4-4-4-4-3-4-4-4-4-4-4-4-5-4-4-4---||-4-4-4-4-3-4-4-4-------2-4-5-4-2-|
||o-4-4-4-4-3-4-4-4-4-4-4-4-5-4-4-4--o||-4-4-4-4-3-4-4-4-----4-----------|
||--2-2-2-2-1-2-2-2-2-2-2-2-3-2-2-2---||-2-2-2-2-1-2-2-2-2-5-------------|


01:54 (Rhythm guitar open to interpretation, heavy vibrato on lead)
  Gtr I
  ~~~~~~~~~~~~~~~~~~~~~~~~~~~~~~~~~~~~~~~~~~~~~~~
|----------9--8----------|---------8--7---------|
|-7----10----------------|------8---------------|
|----------------10------|-9-------------8------|
|------------------------|----------------------|
|------------------------|----------------------|
|------------------------|----------------------|
|
| Gtr III
|------------------------|----------------------|
|------------------------|----------------------|
|------------------------|----------------------|
|-4-----------3----------|-2----------1---------|
|-4-----------3----------|-2----------1---------|
|-2-----------1----------|-0--------------------|

02:03
 ~~~~~~~~~~~~~~~~~~~~~~~
|---------10-10h11p10-8-|--------------9-8--|
|-------7---------------|------------7------|
|--7--------------------|--6-\4-/6----------|
|-----------------------|-------------------|
|-----------------------|-------------------|
|-----------------------|-------------------|
|
|-----------------------|-------------------|
|-----------------------|-------------------|
|-----------------------|-------------------|
|-12--------------------|-11----------------|
|-12--------------------|-11----------------|
|-10--------------------|--9----------------|

02:06                                 
|-------------------------------------15----------------------------------------------|
|----------------------------------17----17-------------------------------------------|
|----------------15----15-18-15-18----------18-15-18-16-14----------------------------|
|----14-17-14-17----17-------------------------------------18-16-15-------------------|
|-16----------------------------------------------------------------17-16-14----------|
|----------------------------------------------------------------------------17-16-15-|
|
| Gtr III
|-------------------------------------------------------------------------------------|
|-------------------------------------------------------------------------------------|
|-------------------------------------------------------------------------------------|
|-11----------------------------------------------------------------------------------|
|-11----------------------------------------------------------------------------------|
|--9----------------------------------------------------------------------------------|

02:09
(Lead guitar = piano)
  Gtr I
|-----------------------9---8--------------------|
|--7----------------10---------------------------|
|-----------------------------------10-----------|
|------------------------------------------------|
|------------------------------------------------|
|-(14)-------------------------------------------|
|
| Gtr III
|------------------------------------------------|
|------------------------------------------------|
|------------------------------------------------|
|-16-16-16-16-16-16--------15-15-15-15-15-15-----|
|-16-16-16-16-16-16--------15-15-15-15-15-15-----|
|-14-14-14-14-14-14--------13-13-13-13-13-13-----|

02:13
|----------------------8---7------------------|-----------10-9----|----------9-8----------|
|-------------------8-------------------------|---------7---------|--------7---------/14--|
|--9-----------------------------8------------|--7----------------|--6--------------------|
|---------------------------------------------|-------------------|-----------------------|
|---------------------------------------------|-------------------|-----------------------|
|---------------------------------------------|-------------------|-----------------------|
|
|---------------------------------------------|-------------------|-----------------------|
|---------------------------------------------|-------------------|-----------------------|
|---------------------------------------------|-------------------|-----------------------|
|-14-14-14-14-14-14-------13-13-13-13-13-13---|-12----------------|-11-----------11-------|
|-14-14-14-14-14-14-------13-13-13-13-13-13---|-12----------------|-11-----------11-------|
|-12-12-12-12-12-12-------11-11-11-11-11-11---|-10----------------|--9------------9-------|


02:24
(Main Zelda theme!)
 4/4
  Gtr I
|-/14------(14)-------14-|-12----12-----------|-/14------(14)----------14-|-13p11h13-----------|
|---------------14-14----|----15--------------|---------------15p14h15----|--------------------|
|------------------------|--------------------|---------------------------|--------------------|
|------------------------|--------------------|---------------------------|--------------------|
|------------------------|--------------------|---------------------------|--------------------|
|------------------------|--------------------|---------------------------|--------------------|
|
| Gtr II
|------------------------|--------------------|---------------------------|--------------------|
|-/11------(11)-------11-|--9-----9-----------|--10------(10)----------10-|--9p=7h=9-----------|
|---------------11-11----|----11--------------|---------------11----11----|--------------------|
|------------------------|--------------------|---------------------------|--------------------|
|------------------------|--------------------|---------------------------|--------------------|
|------------------------|--------------------|---------------------------|--------------------|
|
| Gtr III
|------------------------|--------------------|---------------------------|--------------------|
|------------------------|--------------------|---------------------------|--------------------|
|------------------------|--------------------|---------------------------|--------------------|
|-----------16-----------|--------------14----|-----------12--------------|--------------11----|
|------16----------------|----------14--------|------12-------------------|----------11--------|
|--14--------------------|-12-----------------|--10-----------------------|--9-----------------|


02:37
(Second guitar = trumpet)
  Gtr I
|---------------6-7-|-9---------------|--------------------7-|-9---------------------|
|-7-------7-7-9-----|-----------------|-7---------7-7-9-10---|-----------------------|
|----6--------------|-----------------|-----6----------------|-----------------------|
|-------------------|-----------------|----------------------|-----------------------|
|-------------------|-----------------|----------------------|-----------------------|
|-------------------|-----------------|----------------------|-----------------------|
|
| Gtr II                          ~~            ~~                               ~~
|-------------------|---------6-7-9---|----14----------------|------------18-19-21---|
|----7--------------|---7-7-9---------|--------14------------|---19-19-21------------|
|-------6-----------|-----------------|----------------------|-----------------------|
|-------------------|-----------------|----------------------|-----------------------|
|-------------------|-----------------|----------------------|-----------------------|
|-------------------|-----------------|----------------------|-----------------------|


02:48
  Gtr I
|-----------|--------------------|-----------|--------|
|-7---------|-------7-8-10--6-10-|-7---------|--------|
|------6----|-(6)----------------|------6----|-(6)----|
|-----------|--------------------|-----------|--------|
|-----------|--------------------|-----------|--------|
|-----------|--------------------|-----------|--------|
|
| Gtr II
|-----------|--------------------|-----------|--------|
|-----------|------------5-----5-|-----------|--------|
|-6---------|-------6-7-----5----|-6---------|--------|
|------4----|-(4)----------------|------4----|-(4)----|
|-----------|--------------------|-----------|--------|
|-----------|--------------------|-----------|--------|

02:59
  Gtr I
|------|----------|-----------17-|-14-(14)-(14)-(14)-(12)-(14)-(15)-(17)-|-14~~~
|-\14--|-17-15-14-|-----14-17----|---------------------------------------|-----|
|------|----------|--16----------|---------------------------------------|-----|
|------|----------|--------------|---------------------------------------|-----|
|------|----------|--------------|---------------------------------------|-----|
|------|----------|--------------|---------------------------------------|-----|

03:11
(Metal section - listen to song for rhythm!)
    Gtr III
                                     4x
||-----------------------------------||-|
||o---------------------------------o||-|
||-----------------------------------||-|
||--4-4-4--4-2--2-4--4--4-4-4-4-5-3--||-|
||o-4-4-4--4-2--2-4--4--4-4-4-4-5-3-o||-|
||--2-2-2--2-0--0-2--2--2-2-2-2-3-1--||-|


03:25
(Note the repeat sign)
    Gtr I
||------------------|------------------------|-----------------|---------------------||---|
||o-7---------------|--------7---8-10---6-10-|-7---------------|--------------------o||---|
||-----------6------|-(6)--------------------|----------6------|-(6)-----------------||---|
||------------------|------------------------|-----------------|---------------------||---|
||o-----------------|------------------------|-----------------|--------------------o||---|
||------------------|------------------------|-----------------|---------------------||---|
|
|   Gtr II
||------------------|------------------------|-----------------|---------------------||---|
||o-----------------|---------------5------5-|-----------------|--------------------o||---|
||--6---------------|--------6---7------4----|-6---------------|---------------------||---|
||-----------4------|-(4)--------------------|----------4------|-(4)-----------------||---|
||o-----------------|------------------------|-----------------|--------------------o||---|
||------------------|------------------------|-----------------|---------------------||---|
|
|   Gtr III
||------------------|------------------------|-----------------|---------------------||---|
||o-----------------|------------------------|-----------------|--------------------o||---|
||------------------|------------------------|-----------------|---------------------||---|
||--4-4-4--4-2--2-4-|-----4--4-4-4--4-5-3----|-4-4-4--4-2--2-4-|-----4--4-4-4-4-5-3--||---|
||o-4-4-4--4-2--2-4-|-----4--4-4-4--4-5-3----|-4-4-4--4-2--2-4-|-----4--4-4-4-4-5-3--||---|
||--2-2-2--2-0--0-2-|-----2--2-2-2--2-3-1----|-2-2-2--2-0--0-2-|-----2--2-2-2-2-3-1--||---|


03:38
  Gtr I
|-------------------|-------------/12-10---------|-----------------|-----------------------------|
|-12--------\7------|-(7)----12------------13-10-|-12------\7------|-(7)-------------------------|
|-------------------|----------------------------|-----------------|-----------------------------|
|-------------------|----------------------------|-----------------|-----------------------------|
|-------------------|----------------------------|-----------------|-----------------------------|
|-------------------|----------------------------|-----------------|-----------------------------|
|
| Gtr III
|-------------------|----------------------------|-----------------|-----------------------------|
|-------------------|----------------------------|-----------------|-----------------------------|
|--4-4-4--4--2--2-4-|-----4---4-4---4--4-5--3----|--4-4--4--2--2-4-|-----4--4-4------------------|
|--4-4-4--4--2--2-4-|-----4---4-4---4--4-5--3----|--4-4--4--2--2-4-|-----4--4-4---------------4--|
|--2-2-2--2--0--0-2-|-----2---2-2---2--2-3--1----|--2-2--2--0--0-2-|-----2--2-2---4-5-7-4-5-7----|
|-------------------|----------------------------|-----------------|------------7----------------|


03:44
  Gtr I
|-----------------|------------------------|---------------|-----------------------------|
|-7---------------|--------7---8-10---6-10-|-7-------------|-----------------------------|
|----------6------|-(6)--------------------|--------6------|-(6)-------------------------|
|-----------------|------------------------|---------------|-----------------------------|
|-----------------|------------------------|---------------|-----------------------------|
|-----------------|------------------------|---------------|-----------------------------|
|
| Gtr III
|-----------------|------------------------|---------------|-----------------------------|
|-----------------|------------------------|---------------|-----------------------------|
|-----------------|------------------------|---------------|-----------------------------|
|-4-4-4--4-2--2-4-|-----4--4-4-4--4-5-3----|-4-4--4-2--2-4-|-----4--4-4-x-x-x-x-x-x-x-x--|
|-4-4-4--4-2--2-4-|-----4--4-4-4--4-5-3----|-4-4--4-2--2-4-|-----4--4-4-x-x-x-x-x-x-x-x--|
|-2-2-2--2-0--0-2-|-----2--2-2-2--2-3-1----|-2-2--2-0--0-2-|-----2--2-2-x-x-x-x-x-x-x-x--|


03:52
(Second guitar = trumpet, rhythm guitar open to interpretation)
    Gtr I
||--------------------------|-----------------------------||
||o-------------------------|----------------------------o||
||-----------------------14-|-11--------------------------||
||--/14---12-11----11-14----|-----------------------------||
||o-------------14----------|----------------------------o||
||--------------------------|-----------------------------||
|
|   Gtr II
||--------------------------|-----------------------------||
||o-------------------------|----14-14-14-14-15-17-15-14-o||
||--------------------------|-----------------------------||
||--------------------------|-----------------------------||
||o-------------------------|----------------------------o||
||--------------------------|-----------------------------||
|
|   Gtr III
||--------------------------|-----------------------------||
||o-------------------------|----------------------------o||
||--------------------------|-----------------------------||
||----5---------------------|--4--------------------------||
||o---5---------------------|--4-------------------------o||
||----3---------------------|--2--------------------------||


03:58
  Gtr I                                                                          ~~~
|-------------------------|-------------------------|------------------------|--------|
|-------------------------|-------------------------|-12------------------12-|-/14----|
|----------------------11-|-14---12-11----11-12-14--|------14-12-11-12-14----|--------|
|-/14---12-11----11-14----|------------14-----------|------------------------|--------|
|-------------14----------|-------------------------|------------------------|--------|
|-------------------------|-------------------------|------------------------|--------|
|
| Gtr III
|-------------------------|-------------------------|------------------------|--------|
|-------------------------|-------------------------|------------------------|--------|
|-------------------------|-------------------------|------------------------|---6----|
|---7---------------------|--5----------------------|--6---------------------|---6----|
|---7---------------------|--5----------------------|--6---------------------|---4----|
|---5---------------------|--3----------------------|--4---------------------|--------|


04:06
  Gtr I
  TP              TP   TP   TP    TP         TP
|---------------------------9---|-8-------------------------|
|-7----------(7)--9---10--------|------------9--------------|
|-------------------------------|---------------------------|
|-------------------------------|---------------------------|
|-------------------------------|---------------------------|
|-------------------------------|---------------------------|
|
| Gtr II
| TP                   TP   TP    TP         TP
|-------------------------------|---------------------------|
|--------------------------10---|-9-------------------------|
|-------------------------------|------------8--------------|
|---------------------11--------|---------------------------|
|-9-----------------------------|---------------------------|
|-------------------------------|---------------------------|
|
| Gtr III
|-------------------------------|---------------------------|
|-------------------------------|---------------------------|
|-------------------------------|---------------------------|
|-4-4-4--4-4--4---4-4--4-4--4-4-|-6-6-6--6-6-6--6-6-6-6-6-6-|
|-4-4-4--4-4--4---4-4--4-4--4-4-|-6-6-6--6-6-6--6-6-6-6-6-6-|
|-2-2-2--2-2--2---2-2--2-2--2-2-|-4-4-4--4-4-4--4-4-4-4-4-4-|


  TP          TP   TP       TP      TP
|-7-------------------------------|------------------------------|
|------------10----6-------10-----|-7----------------------------|
|---------------------------------|------------------------------|
|---------------------------------|------------------------------|
|---------------------------------|------------------------------|
|---------------------------------|------------------------------|
|
| TP          TP   TP       TP      TP
|---------------------------------|------------------------------|
|---------------------------------|------------------------------|
|-7-------------------------------|------------------------------|
|-------------7-------------7-----|-7----------------------------|
|------------------8--------------|------------------------------|
|---------------------------------|------------------------------|
|
|---------------------------------|------------------------------|
|---------------------------------|------------------------------|
|---------------------------------|------------------------------|
|-3-3-3--3-3--3--3---3-3-3----3-3-|-4-4-4--4-4-4--4-4-4-4-4-4----|
|-3-3-3--3-3--3--3---3-3-3----3-3-|-4-4-4--4-4-4--4-4-4-4-4-4----|
|-1-1-1--1-1--1--1---1-1-1----1-1-|-2-2-2--2-2-2--2-2-2-2-2-2----|


04:14
(Heavy vibrato on lead and second guitar)
|---------------------------9---|-8-------------------------|
|-7----------(7)--9---10--------|------------9--------------|
|-------------------------------|---------------------------|
|-------------------------------|---------------------------|
|-------------------------------|---------------------------|
|-------------------------------|---------------------------|
|
|-------------------------------|---------------------------|
|--------------------------10---|-9-------------------------|
|-------------------------------|------------8--------------|
|---------------------11--------|---------------------------|
|-9-----------------------------|---------------------------|
|-------------------------------|---------------------------|
|
|-------------------------------|---------------------------|
|-------------------------------|---------------------------|
|-------------------------------|---------------------------|
|-4-4-4--4-4--4---4-4--4-4--4-4-|-6-6-6--6-6-6--6-6-6-6-6-6-|
|-4-4-4--4-4--4---4-4--4-4--4-4-|-6-6-6--6-6-6--6-6-6-6-6-6-|
|-2-2-2--2-2--2---2-2--2-2--2-2-|-4-4-4--4-4-4--4-4-4-4-4-4-|

04:16
|-7-------------------------------|----------------|
|------------10----6-------10-----|-7--------------|
|---------------------------------|----------------|
|---------------------------------|----------------|
|---------------------------------|----------------|
|---------------------------------|----------------|
|
|---------------------------------|----------------|
|---------------------------------|----------------|
|-7-------------------------------|----------------|
|-------------7-------------7-----|----------------|
|------------------8--------------|-9--------------|
|---------------------------------|----------------|
|
|---------------------------------|----------------|
|---------------------------------|----------------|
|---------------------------------|----------------|
|-3-3-3--3-3--3--3---3-3-3----3-3-|-4-6-7-6-7-9----|
|-3-3-3--3-3--3--3---3-3-3----3-3-|-4-6-7-6-7-9----|
|-1-1-1--1-1--1--1---1-1-1----1-1-|-2-4-5-4-5-7----|


04:19
  Gtr I
|-10--10-10--10-10------------10---|--9------------------------|
|-------------------12-------------|---------------------------|


|------------------------11--------|---------------------------|
|----------------------------------|---------------------------|
|----------------------------------|---------------------------|
|----------------------------------|---------------------------|
|
| Gtr II
|----------------------------------|---------------------------|
|-12--12-12--12-12-------12S=======|=10------------------------|
|----------------------------------|---------------------------|
|----------------------------------|---------------------------|
|----------------------------------|---------------------------|
|----------------------------------|---------------------------|
|
| Gtr III
|----------------------------------|---------------------------|
|----------------------------------|---------------------------|
|----------------------------------|---------------------------|
|--9---9--9---9--9---9-9--9-9--9-9-|--7--7-7--7-7--7-7-7-7-7-7-|
|--9---9--9---9--9---9-9--9-9--9-9-|--7--7-7--7-7--7-7-7-7-7-7-|
|--7---7--7---7--7---7-7--7-7--7-7-|--5--5-5--5-5--5-5-5-5-5-5-|


04:22
|-7--7-7--7-7------------7---|-5---------------|
|---------------7------------|-----------------|
|--------------------7-------|-----------------|
|----------------------------|-----------------|
|----------------------------|-----------------|
|----------------------------|-----------------|
|
|----------------------------|-----------------|
|-9--9-9--9-9------------9---|-7---------------|
|--------------11------------|-----------------|
|-------------------12-------|-----------------|
|----------------------------|-----------------|
|----------------------------|-----------------|
|
|----------------------------|-----------------|
|----------------------------|-----------------|
|----------------------------|-----------------|
|-6--6-6--6-6---6-6--6-6-6-6-|-4--4-4--4-4-6-7-|
|-6--6-6--6-6---6-6--6-6-6-6-|-4--4-4--4-4-6-7-|
|-4--4-4--4-4---4-4--4-4-4-4-|-2--2-2--2-2-4-5-|

04:26
  Gtr I
|-10--10-10--10-10------------10---|--9---9--9---9--9------------9---|
|-------------------12-------------|-------------------10------------|
|------------------------11--------|------------------------11-------|
|----------------------------------|---------------------------------|
|----------------------------------|---------------------------------|
|----------------------------------|---------------------------------|
|
| Gtr II
|----------------------------------|---------------------------------|
|-12--12-12--12-12-------12--------|-10--10-10--10-10-------10-------|
|----------------------------------|---------------------------------|
|----------------------------------|---------------------------------|
|----------------------------------|---------------------------------|
|----------------------------------|---------------------------------|
|
| Gtr III
|----------------------------------|---------------------------------|
|----------------------------------|---------------------------------|
|----------------------------------|---------------------------------|
|--9---9--9---9--9---9-9--9-9--9-9-|--7---7--7---7--7---7-7--7-7-7-7-|
|--9---9--9---9--9---9-9--9-9--9-9-|--7---7--7---7--7---7-7--7-7-7-7-|
|--7---7--7---7--7---7-7--7-7--7-7-|--5---5--5---5--5---5-5--5-5-5-5-|

04:29                           ~~~
|-7--7-7--7-7------------7---|-5---------------|------------------|
|---------------7------------|-----------------|------------------|
|--------------------7-------|-----------------|------------------|
|----------------------------|-----------------|------------------|
|----------------------------|-----------------|------------------|
|----------------------------|-----------------|------------------|
|                               ~~~
|----------------------------|-----------------|------------------|
|-9--9-9--9-9------------9---|-7---------------|------------------|
|--------------11------------|-----------------|------------------|
|-------------------12-------|-----------------|------------------|
|----------------------------|-----------------|------------------|

|----------------------------|-----------------|------------------|
|
|----------------------------|-----------------|------------------|
|----------------------------|-----------------|------------------|
|----------------------------|-----------------|------------------|
|-6--6-6--6-6---6-6--6-6-6-6-|-4-4-4--4-2--2-4-|--4--4-4-4-4-5-3--|
|-6--6-6--6-6---6-6--6-6-6-6-|-4-4-4--4-2--2-4-|--4--4-4-4-4-5-3--|
|-4--4-4--4-4---4-4--4-4-4-4-|-2-2-2--2-0--0-2-|--2--2-2-2-2-3-1--|


04:34
  Gtr III
|--------------|-----------------|-------------------|-------------------|
|--------------|-----------------|-------------------|-------------------|
|--------------|-----------------|-------2-----------|-------2-----------|
|--4--4-2--2-4-|--4--4-4-4-4-5-3-|-4-4-4-2-4-2-5-4-2-|-x-x-4-2-4-2-5-4---|
|--4--4-2--2-4-|--4--4-4-4-4-5-3-|-4-4-4-0-4-2-5-4-2-|-x-x-4-0-4-2-5-4---|
|--2--2-0--0-2-|--2--2-2-2-2-3-1-|-2-2-2---2-0-3-2-0-|-x-x-2---2-0-3-2---|


  Gtr III
|-------------------|------------------|----------------------------|
|-------------------|------------------|----------------------------|
|-------5-----------|-------5----------|----------------------------|
|-7-7-7-5-7-5-8-7-5-|-7-7-7-5-7-5-8-7--|-5-5--8-8--7-7--13-13-12----|
|-7-7-7-3-7-5-8-7-5-|-7-7-7-3-7-5-8-7--|-5-5--8-8--7-7--13-13-12----|
|-5-5-5---5-3-6-5-3-|-5-5-5---5-3-6-5--|-3-3--6-6--5-5--11-11-10----|


                                  04:48
  Gtr III
|--------------------------------|-------------|-------------|
|--------------------------------|-------------|-------------|
|--------------------------------|-------------|-------------|
|-10-10--13-13--12-12--x-15-14---|-7-7-7-7-7-7-|-7-7-7-7-7-7-|
|-10-10--13-13--12-12--x-15-14---|-7-7-7-7-7-7-|-7-7-7-7-7-7-|
|--8--8--11-11--10-10--x-13-12---|-5-5-5-5-5-5-|-5-5-5-5-5-5-|


04:52
(Syncopated rhythm guitar)
  Gtr I
                  ~~
|---------------------------|----14b15-14--------------|---------------------|
|-----17--------------------|---------------15---/17---|---------------------|
|-/14----17b19---17---16----|-14-----------------------|----17b19-17-16---14-|
|------------------------17-|--------------------------|-17------------------|
|---------------------------|--------------------------|---------------------|
|---------------------------|--------------------------|---------------------|
|
| Gtr II
|---------------------------|--------------------------|---------------------|
|---------------------------|----17----15--------------|---------------------|
|-----17-14b16---14---------|---------------16----17---|----16----14---------|
|-/14-----------------17----|-14-----------------------|-14----------17---12-|
|------------------------17-|--------------------------|---------------------|
|---------------------------|--------------------------|---------------------|
|
| Gtr III
|---------------------------|--------------------------|---------------------|
|---------------------------|--------------------------|---------------------|
|---------------------------|--------------------------|---------------------|
|---7--7--7----7----7-----7-|--7--7-----7-7----7-----7-|--5--5-----5--5-5--5-|
|---7--7--7----7----7-----7-|--7--7-----7-7----7-----7-|--5--5-----5--5-5--5-|
|---5--5--5----5----5-----5-|--5--5-----5-5----5-----5-|--3--3-----3--3-3--3-|


04:58
  Gtr I
  T      T    T  T    T    T  T    T  T
|---------------------------------------|
|-8p3h8-18p3-18-17p3-15p3-15-13p3-13-12-|
|---------------------------------------|
|---------------------------------------|
|---------------------------------------|
|---------------------------------------|
|
| Gtr III
|---------------------------------------|
|---------------------------------------|
|---------------------------------------|
|-5------5-------5----5-------5-------5-|
|-5------5-------5----5-------5-------5-|
|-3------3-------3----3-------3-------3-|


04:59
|--------------------------|--------------------------|------------------------|
|--------------------------|-----------15---17---18---|-17--------15---18------|
|-----------14---16---17---|-15-----17----------------|----16------------------|
|-15-----17----------------|--------------------------|------------------------|
|--------------------------|--------------------------|------------------------|
|--------------------------|--------------------------|------------------------|
|
| Gtr II
|--------------------------|--------------------------|------------------------|
|--------------------------|--------------------------|------------------------|
|--------------------------|---------------------15---|-16-16------------------|
|-----------15---17---19---|-15-----15-15---15--------|------------------------|
|-15-----------------------|--------------------------|------------------------|
|--------------------------|--------------------------|------------------------|
|
| Gtr III
|--------------------------|--------------------------|------------------------|
|--------------------------|--------------------------|------------------------|
|--------------------------|--------------------------|------------------------|
|---------3--------------3-|---------8--------------8-|--2--2-2-2----2----2----|
|----0-3-------0----3------|----5-8-------5----8------|--2--2-2-2----2----2----|
|--1---------1-------------|--6---------6-------------|--0--0-0-0----0----0----|


05:04        
  Gtr I      ^  ^  ^  ^
|-----------15----15----|--------------------------|---------------------|
|-17-----------17----17-|--------------------------|-----------15-17-18--|
|----16-----------------|-----------14---16---17---|-16-----17-----------|
|-----------------------|-15-----17----------------|---------------------|
|-----------------------|--------------------------|---------------------|
|-----------------------|--------------------------|---------------------|
|
| Gtr II
|-----------------------|--------------------------|---------------------|
|-----------------------|--------------------------|---------------------|
|-16-16-----------------|--------------------------|-----------17-16-16--|
|-----------------------|-----------15---17---19---|-17------------------|
|-----------------------|-15-----------------------|---------------------|
|-----------------------|--------------------------|---------------------|
|
| Gtr III
|-----------------------|--------------------------|---------------------|
|-----------------------|--------------------------|---------------------|
|-----------------------|--------------------------|---------------------|
|--2--2-2-2--2-----2----|---------3--------------3-|---------5-----------|
|--2--2-2-2--2-----2----|----0-3-------0----3------|----2-5--------------|
|--0--0-0-0--0-----0----|--1---------1-------------|--3---------3--2--1--|


05:08
  Gtr I
|-------------------------------------|-15-15-15-15-15-------|
|-17-15-17-15-17-15-17-15-17-15-17-15-|----------------17----|
|-------------------------------------|----------------------|
|-------------------------------------|----------------------|
|-------------------------------------|----------------------|
|-------------------------------------|----------------------|
|
| Gtr II
|-------------------------------------|----------------------|
|-------------------------------------|-15-15-15-15-15-12----|
|-16-14-16-14-16-14-16-14-16-14-16-14-|----------------------|
|-------------------------------------|----------------------|
|-------------------------------------|----------------------|
|-------------------------------------|----------------------|
|
| Gtr III
|-------------------------------------|----------------------|
|-------------------------------------|----------------------|
|-------------------------------------|----------------------|
|--2--0--2--0--2--0--2--0--2--0--2--0-|--5--5--5--5--5--2----|
|--2--0--2--0--2--0--2--0--2--0--2--0-|--5--5--5--5--5--2----|
|--0-----0-----0-----0-----0-----0----|--3--3--3--3--3--0----|


Tablature Legend
----------------
 h   - hammer-on
 p   - pull-off
 b   - bend
 pb  - pre-bend
 r   - bend release (if no number after the r, then release immediately)
 /\  - slide into or out of (from/to "nowhere")
 s   - legato slide
 S   - shift slide
  - natural harmonic
[n]  - artificial harmonic
n(n) - tapped harmonic
 ~   - vibrato
 tr  - trill
 T   - tap
 TP  - trem. picking
 PM  - palm muting
\n/  - tremolo bar dip; n = amount to dip
 \n  - tremolo bar down
 n/  - tremolo bar up
/n\  - tremolo bar inverted dip
 =   - hold bend; also acts as connecting device for hammers/pulls
 <>  - volume swell (louder/softer)
 x   - on rhythm slash represents muted slash
 o   - on rhythm slash represents single note slash

Misc Legend
-----------
 |  - bar
||  - double bar
||o - repeat start
o|| - repeat end
*|  - double bar (ending)
 :  - bar (freetime)
 $  - Segno
 &  - Coda
Tempo markers -  = BPM(8/16=s8/s16), where s8 = swing 8ths, s16 = swing 16ths


***************************************************************************************
* Generated using Power Tab Editor by Brad Larsen - http://powertab.guitarnetwork.org *
***************************************************************************************
Tap to rate this tab
 
# A B C D E F G H I J K L M N O P Q R S T U V W X Y Z