Guitaretab - guitar tabs
Song name
# A B C D E F G H I J K L M N O P Q R S T U V W X Y Z

Misc Unsigned Bands - Elevation 2000 - Hang On tab

Hi, this is the tab for a song a came up with called Hang On.(The only person reading 
is probably you preston)Please give this song a good rating. This is only about half the 
I havent came up with the rest.

Play with standerd tuning, capo on 4th fret entire song.
Sounds best on acoustic.


    D          A          D          A          G
E |-2-2-2-2-2--0-0-0-0-0--2-2-2-2-2--0-0-0-0-0--3-3-3-3-3-|
B |-3-3-3-3-3--2-2-2-2-2--3-3-3-3-3--2-2-2-2-2--0-0-0-0-0-|
G |-2----------2----------2----------2----------0---------|
D |-0----------2----------0----------2----------0---------|
A |------------0---------------------0----------2---------|
E |---------------------------------------------3---------|
[ Tab from: ]
    D          Em         Am
E |-3-3-3-3-3--0-0-0-0-0--0-0-0-0-0----------------------|
B |-2-2-2-2-2--0-0-0-0-0--1-1-1-1-1----------------------|
G |-3----------0----------2------------------------------|
D |-0----------2----------2------------------------------|
A |------------2----------0------------------------------|
E |------------0-----------------------------------------|


                     G        D   Em               Am
Even  when times are baaaaaaad.   Hang on, don't let go.
         G               D         Em              Am
Your time will come and pass, when you'll laugh it off.

Pre chorus:

Em(7)    1*(7)    2*(7)    3*(3)   4*(1)   3(1)
But for now
But for now

* The numbers represent the chords that I made up, The tabs are below. The numbers in 
the number of times you strum the chord( downstroke only)

Chord  1    Chord 2  Chord 3  Chord 4

E |------------------------------------------------------|
B |------------------------------------------------------|
G |------------------------------------------------------|
D |--0---------------------------------------------------|
A |--2-------3---------5--------12-----------------------|
E |--3-------3---------5--------12-----------------------|


Em         1*     D            Am
Hang on, hang on    don't let go
Watch your step,    so you don't fall.
Haaaaaaannnnnnnggggggg ooooooonnnnnnnn
Related for Elevation 2000 - Hang On tab