Song name
# A B C D E F G H I J K L M N O P Q R S T U V W X Y Z

Misc Unsigned Bands - Marakesh - Daleko Zdes tab

Help us improve GuitareTab! Take a short survey!
                                 Marakesh

                               "Daleko Zdes"


-------------------------------------------------------------------------------

Tabbed by Pros9

For comments, questions, corrections...
My e-mail pros9@mail.ru
Or page vkontakte.ru - http://vkontakte.ru/id5675152

Tuning: DADGBE (Drop D tuning)

Intro (0:00-0:13)

   d  u  d  u  d  u  d  u  d  d  d  d  u  d  u  du
e|--------------------------------------------------|
B|----------------------------------------------X---|
G|-6--6--6--6--6--6--6--6--6--6--6--6--6--6--6--xx--|
D|-7--7--7--7--7--7--7--7--7--7--7--7--7--7--7--xx--|
A|-5--5--5--5--5--5--5--5--5--5--5--5--5--5--5--xx--|
D|--------------------------------------------------|

   d  d  d  d  d  d  d  d  d  d  d  d  d  d  d  du
e|--------------------------------------------------|
B|--------------------------------------------------|
G|-9--9--9--9--9--9--9--9--9--9--9--9--9--9--9---x--|
D|-10-10-10-10-10-10-10-10-10-10-10-10-10-10-10-xx--|
A|-8--8--8--8--8--8--8--8--8--8--8--8--8--8--8--xx--|
D|--------------------------------------------------|


   d  d  d  d  d  d  d  d  d  d  d  d  d  d  d  du
e|--------------------------------------------------|
B|-----------------------------------------------x--|
G|-6--6--6--6--6--6--6--6--6--6--6--6--6--6--6--xx--|
D|-7--7--7--7--7--7--7--7--7--7--7--7--7--7--7--xx--|
A|-5--5--5--5--5--5--5--5--5--5--5--5--5--5--5--xx--|
D|--------------------------------------------------|


   d  d  d  d  d  d  d  d  d let ring
e|--------------------------------------------------|
B|--------------------------------------------------|
G|-9--9--9--9--9--9--9--9--9--~~~~~~~~~~~~~~~~~~~~~~|
D|-10-10-10-10-10-10-10-10-10-~~~~~~~~~~~~~~~~~~~~~~|
A|-8--8--8--8--8--8--8--8--8--~~~~~~~~~~~~~~~~~~~~~~|
D|--------------------------------------------------|


Intro (Hard Part) (0:14-0:27)


e|---------------------------------------|
B|---------------------------------------|
G|---------------------------------------|
D|-0--0--4--3---0-4--3---0-4--3---0-4-3--| 4X
A|-0--0--4--3---0-4--3---0-4--3---0-4-3--|
D|-0--0--4--3---0-4--3---0-4--3---0-4-3--|


Verse 1 (0:28-0:39)

         p                                    p
e|----------------------------------|-------------------------------------|
B|----------------------------------|-------------------------------------|
G|----------------------------------|-------------------------------------|
D|-0--0-----------------------------|-0--0--0-----------------------------| 2X
A|-0--0-----------------------------|-0--0--0-----------------------------|
D|-0--0-----------------------------|-0--0--0-----------------------------|
         Ты знаешь 
обо мне             Ты 
точно, где нас нет...


Pre-Chorus (0:40-0:59)

   d  d  d  d  d  d  d  d  d  d  d  d  d  d  d  d
e|-------------------------------------------------|
B|-------------------------------------------------|
G|-6--6--6--6--6--6--6--6--6--6--6--6--6--6--6--6--|
D|-7--7--7--7--7--7--7--7--7--7--7--7--7--7--7--7--|
A|-5--5--5--5--5--5--5--5--5--5--5--5--5--5--5--5--|
D|-------------------------------------------------|
   Ведь я 
солнце

   d  d  d  d  d  d  d  d  d  d  d  d  d  d  d  d
e|--------------------------------------------------|
B|--------------------------------------------------|
G|-9--9--9--9--9--9--9--9--9--9--9--9--9--9--9--9---|
D|-10-10-10-10-10-10-10-10-10-10-10-10-10-10-10-10--| 2X
A|-8--8--8--8--8--8--8--8--8--8--8--8--8--8--8--8---|
D|--------------------------------------------------|
   И я расставил звёзды


e|-------------------------|
B|-------------------------|
G|-------------------7--7--|
D|-------------7--7--7--7--| 4X
A|-------------5--5--5--5--|
D|-0--0--0--0-(0)(0)(0)(0)-|

Chorus (1:00-1:25)


e|-------------------------------------------------|
B|-------------------------------------------------|
G|-4--4--4--2--2--2--------------------------------|
D|-4--4--4--2--2--2--3--3--3--0--0--0--0--0--0--0--| 2X
A|-2--2--2--0--0--0--3--3--3--0--0--0--0--0--0--0--|
D|-------------------3--3--3--0--0--0--0--0--0--0--|

e|---------------------------------------|
B|---------------------------------------|
G|-----------------------------4--4-4-4--|
D|-5--5--7/9--9--9--9--0--0-0--4--4-4-4--|
A|-5--5----------------0--0-0--2--2-2-2--|
D|-5--5----------------0--0-0------------|

e|---------------------------------------|
B|---------------------------------------|
G|-----------------------------2--2-2-2--|
D|-5--5--7/9--9--9--9--0--0-0--2--2-2-2--|
A|-5--5----------------0--0-0--0--0-0-0--|
D|-5--5----------------0--0-0------------|

Chorus repeat 2 times


REPEAT INTRO(HARD PART)

REPEAT VERSE                    (1:26-2:36)

REPEAT PRE-CHORUS

REPEAT CHORUS

Ending


Part 1 (2:37-2:49)


palm mute

   *  *  *  *  *  *  *  *  *  *  *  *  *  *  *  *
e|-------------------------------------------------|
B|-------------------------------------------------|
G|-------------------------------------------------|
D|-------------------------------------------------| 2X
A|-------------------------------------------------|
D|-0--0--4--3--0--0--4--3--0--0--4--3--0--0--3--4--|


palm mute

   *  *  *  *  *  *  *  *  *  *  *  *  *  *  *  *
e|-------------------------------------------------|
B|-------------------------------------------------|
G|-------------------------------------------------|
D|-------------------------------------------------| 2X
A|-------------------------------------------------|
D|-0--0--4--3--0--0--4--3--0--0--4--3--0--0--4--3--|

Part 2 (2:50-3:02)


Guitar 1  w/h flanger or phaser


e|---------------------------------------|
B|---------------------------------------|
G|---------------------------------------|
D|-0--0--4--3---0-4--3---0-4--3---0-4-3--| 4X
A|---------------------------------------|
D|---------------------------------------|


Guitar 2


         p
e|----------------------------------|
B|----------------------------------|
G|----------------------------------|
D|-0--0-----------------------------| 4X
A|-0--0-----------------------------|
D|-0--0-----------------------------|

Any Guitar

e|----------------------------------|
B|----------------------------------|
G|----------------------------------|
D|-0--0-----------------------------|
A|-0--0-----------------------------|
D|-0--0-----------------------------|

Part 3 (3:03-3:34)

Guitar 1  light flange and dist


e|---------------------------------------|
B|---------------------------------------|
G|---------------------------------------|
D|-0--0--4--3---0-4--3---0-4--3---0-4-3--| 4X
A|---------------------------------------|
D|---------------------------------------|

Guitar 2

e|---------------------------------------|
B|---------------------------------------|
G|---------------------------------------|
D|-0--0--4--3---0-4--3---0-4--3---0-4-3--| 4X
A|-0--0--4--3---0-4--3---0-4--3---0-4-3--|
D|-0--0--4--3---0-4--3---0-4--3---0-4-3--|


Guitar 1  light flange and dist


e|------------------------------------------------|
B|------------------------------------------------|
G|------------------------------------------------|
D|-0--0--5--6--6--6--5--6--6--6--5--6--6--6--4-3--| 2X
A|------------------------------------------------|
D|------------------------------------------------|

Guitar 2

Same

Guitar 1  light flange and dist


e|---------------------------------------|
B|---------------------------------------|
G|---------------------------------------|
D|-0--0--4--3---0-4--3---0-4--3---0-4-3--| 4X
A|---------------------------------------|
D|---------------------------------------|

Guitar 2

e|---------------------------------------|
B|---------------------------------------|
G|---------------------------------------|
D|-0--0--4--3---0-4--3---0-4--3---0-4-3--| 4X    (Last time without 3 last chords)
A|-0--0--4--3---0-4--3---0-4--3---0-4-3--|
D|-0--0--4--3---0-4--3---0-4--3---0-4-3--|

palm mute

   * * *
e|--------|
B|--------|
G|--------|
D|-0-4-3--|
A|-0-4-3--|
D|-0-4-3--|
Related for Marakesh - Daleko Zdes tab