Song name
# A B C D E F G H I J K L M N O P Q R S T U V W X Y Z

Misc Unsigned Bands - Drowning Inside - Black And White tab

ARTIST: DROWNING INSIDE
  SONG: BLACK + WHITE
 ALBUM: TBA
  YEAR: 2009

TABBED BY: ROB THE GUITAR PLAYER - GUITARIST OF DROWNING INSIDE

INTRO:

PART 1:
E |---------------------------------------------------------------|
B |---------------------------------------------------------------|
G |-----------------------------------------------------------2---|
D |---2---3---5---3---2---3---2---0---2---3---5---3---2---3-------|
A |-0---0---0---0---0---0---0---0---0---0---0---0---0---0---0-----|
D |---------------------------------------------------------------|

PART 2:
E |---------------------------------------------------------------|
B |------------------------------------------------------------2--|
G |------------------------------------------------------------2--|
D |---2---3---5---3---2---3---2---0---2---3---5---3---2---3----0--|
A |-0---0---0---0---0---0---0---0---0---0---0---0---0---0---0-----|
D |---------------------------------------------------------------|

PLAY PART 1 LOUDLY, THEN PART 2 WITH THE CHORD ACCENTED, THEN PART 1 SOFTLY, ACCENTING 
NOTE ON THE G STRING

VERSE 1:

E |-------------------------------|
B |-------------------------------|
G |-------------------------------|
D |-----7------5------7--8-7-5----|  REPEAT
A |---5------5------5----------5--|
D |-5------5------5---------------|

E |-------------------------------|
B |-------------------------------|
G |-------------------------------|   REPEAT
D |-----7-------5-----7--8-7-5----|
A |---5-------5-----5----------5--|
D |-0-------0-----0---------------|

ACCENT THE OPEN NOTES

VERSE 2:
E |----------------------------------|
B |----------------------------------|
G |----------------------------------|   REPEAT
D |-----7-------5-------7---8-7-5----|
A |---5---5---5---5---5---5-------5--|
D |-5-------5-------5----------------|

E |----------------------------------|
B |----------------------------------|
G |----------------------------------|   REPEAT
D |-----7-------5-------7---8-7-5----|
A |---5---5---5---5---5---5-------5--|
D |-0-------0-------0----------------|

ACCENT THE OPEN NOTES

VERSE 3:

E |----------------------------------------|
B |----------------------------------------|
G |----------------------------------------|   REPEAT
D |-----12-------10-------12---13-12-10----|
A |---10-------10-------10-------------10--|
D |-10-------10-------10-------------------|

E |----------------------------------------|
B |----------------------------------------|
G |----------------------------------------|   REPEAT
D |----12-------10-------12---13-12-10-----|
A |--10-------10-------10--------------10--|
D |-0--------0--------0--------------------|

ACCENT THE OPEN NOTES

E |------------------------------------------|
B |------------------------------------------|
G |------------------------------------------|   REPEAT
D |-----12--------10--------12---13-12-10----|
A |---10--10----10--10----10-------------10--|
D |-10-------10---------10-------------------|

E |---------------------------------------|
B |---------------------------------------|
G |---------------------------------------|   REPEAT
D |----12-------10-------12---13-12-10----|
A |--10--10---10--10---10-------------10--|
D |-0-------0--------0--------------------|

VERSE 3/OUTRO:

PART 1:
E |-------------------------------------------------------------|
B |-------------------------------------------------------------|
G |-------------------------------------------------------------|
D |-------------------------------------------------------------|
A |------0-------0-------0-------0------0------0-----0-------0--|
D |-0-12----0-12----0-10----0-10----0-8----0-8----0-5----0-5----|

PART 2:
E |---------------------------------------------------------------|
B |---------------------------------------------------------------|
G |---------------------------------------------------------------|
D |---------------------------------------------------------------|
A |------0-------0-------0-------0------0------0------0--------0--|
D |-0-12----0-12----0-14----0-14----0-8----0-8----0-10----0-10----|

PLAY PART 1, THEN PART 2, THEN PART 1 LOUDER, THEN PART 2 GRADUALLY SLOWING DOWN SLOWING 
DOWN ON THE LAST 6 NOTES, THEN

ENDING:
D |-0-|
A |-0-| LET RING
D |-0-|

STRUM SLOWLY

TABBED BY: ROB THE GUITAR PLAYER - GUITARIST FOR DROWNING INSIDE

HEAR THIS SONG AND CHECK OUT OUR OTHER SHIT AT http://www.myspace.com/drowninginside1
Tap to rate this tab
# A B C D E F G H I J K L M N O P Q R S T U V W X Y Z