Song name
# A B C D E F G H I J K L M N O P Q R S T U V W X Y Z

Misc Unsigned Bands - Wellpoint - Thinking About You tab

A cool song I wrote, hope you like it.
(play it with a bluesy feel and rhythm) 


A7                                         E7               G7   A7
I've spent long nights, lying awake just thinking about you
A7                                           E7
I've spent long days, sitting around just wondering about you
C#7                                     B7
Been thinking about you all the time, don't this thought will escape my mind
A7     G7    F#7
Yeah, yeah, yeah

Just play that like four times and then this little solo

e--5--5--5--5--5---0--0--0--0---3---|
B---5--5--5--5--5---0--0--0--0---3--|
G-----------------------------------|
D-----------------------------------|
A-----------------------------------|
E-----------------------------------|

e--5--5--5--5--5---0--0--0--0--0---|
B---5--5--5--5--5---0--0--0--0--0--|
G----------------------------------|
D----------------------------------|
A----------------------------------|
E----------------------------------|

e--9--9--9--9--9--7--7--7--7--7---5---5---3---3------2-----2/5|
B---9--9--9--9--9--7--7--7--7--7-----5---5---3---3---2-----2/5|
G-------------------------------------------------------2-----|
D-------------------------------------------------------------|
A-------------------------------------------------------------|
E-------------------------------------------------------------|

Well enjoy.
Tap to rate this tab
# A B C D E F G H I J K L M N O P Q R S T U V W X Y Z