Guitaretab - guitar tabs
Song name
# A B C D E F G H I J K L M N O P Q R S T U V W X Y Z

Misc Unsigned Bands - Animusic - Aqua Harp tab

Animusic Aqua Harp
by Ahuizotl Ceja Lemus
cela_999@hotmail.com

e------------0---7---|-------0------5---0---7---0-------------------|-------|
B-------0------------|----------0-------------------0---------------|-------|
G--------------------|----------------------------------------------|-------|
D--------------------|----------------------------------7-----------|-------|
A---7----------------|---7----------------------------------7---0---|-------|
E--------------------|----------------------------------------------|-------|


e------------0-----0--------|--------------------0------|-------------------|
B---------0-----8-----0-----|-----------0-----------8---|-------------------|
G------------------------6--|--------------6--7---------|-------------------|
D---------------------------|--------7------------------|-------------------|
A------7--------------------|--0--7---------------------|-------------------|
E---0-----------------------|---------------------------|-------------------|


e------------0--7--0-----5--|---------------------------|-------------------|
B---------0-----------0-----|--------------8-----7--8---|-------------------|
G---------------------------|-----------6-----6---------|-------------------|
D---------------------------|--------7------------------|-------------------|
A------7--------------------|--0--7---------------------|-------------------|
E---0-----------------------|---------------------------|-------------------|


e---------------------------------------------------------------------------|
B---------------------------------------------------------------------------|
G---------------------------------------------------------------------------|
D---------------------------------------------------------------------------|
A---------------------------------------------------------------------------|
E---------------------------------------------------------------------------|

e------------0-----0--------|--------------------0------|-------------------|
B---------0-----8-----0-----|-----------0-----------8---|-------------------|
G------------------------6--|--------------6--7---------|-------------------|
D---------------------------|--------7------------------|-------------------|
A------7--------------------|--0--7---------------------|-------------------|
E---0-----------------------|---------------------------|-------------------|


e-----------0--10--0-----9--|--------------7---------5--|-------------------|
B--------0------------0-----|---------------------------|-------------------|
G---------------------------|-----------6-----6---------|-------------------|
D---------------------------|--------7-----------7------|-------------------|
A-----7---------------------|--0--7---------------------|-------------------|
E---0-----------------------|---------------------------|-------------------|

    (Hacer como Fa# para estas notas)  arrastrar la cejilla de 2 a 9
e--------------2----------------------|--9---------------------------|--|
B-----------2-------------------------|-----10------9----------------|--|
G-------------------------------------|---------11-------------------|--|
D-------------------------------------|------------------------------|--|
A-------4-----------------------------|------------------------------|--|
E---2---------------------------------|------------------------------|--|

  con la misma cejilla el 9 de la sexta
e---------------------------------------|-----------------------------------|
B----------------9----------------------|-----------------------------------|
G-------------9-----9------11-----------|-----------------------------------|
D---------11-----------11---------------|-----------------------------------|
A-----11--------------------------------|-----------------------------------|
E---9-----------------------------------|-----------------------------------|
[ Tab from: http://www.guitaretab.com/m/misc-unsigned-bands/182498.html ]
  arrastrar la misma cejilla al 7 de la sexta
e---------------------------------------------|--------------0--------------|
B---------------7-----------------------------|-----------0-----7--9--10----|
G------------7-----7-----9--------------------|-----------------------------|
D---------9-----------9-----------------------|--------6--------------------|
A------9--------------------------------------|-----7-----------------------|
E---7-----------------------------------------|--0--------------------------|


e---------------------------------------------------------------------------|
B---------------------------------------------------------------------------|
G---------------------------------------------------------------------------|
D---------------------------------------------------------------------------|
A---------------------------------------------------------------------------|
E---------------------------------------------------------------------------|

 (Hacer como Fa# para estas notas)  arrastrar la cejilla de 2 a 9
e--------------2----------------------|--9---------------------------|--|
B-----------2-------------------------|-----10------9----------------|--|
G-------------------------------------|---------11-------------------|--|
D-------------------------------------|------------------------------|--|
A-------4-----------------------------|------------------------------|--|
E---2---------------------------------|------------------------------|--|

 con la misma cejilla el 9 de la sexta pero ahora con el dedo medio en el 11 de la 
A y el anular en el 11 de la D para poder llegar al 12 de la B con el meñique
e---------------------------------------|-----------------------------------|
B----------------9---12-----------------|-----------------------------------|
G-------------9---------9--11-----------|-----------------------------------|
D---------11----------------------------|-----------------------------------|
A-----11--------------------------------|-----------------------------------|
E---9-----------------------------------|-----------------------------------|

arrastrar la misma cejilla al 7 de la sexta
e---------------------------------------------|--------------0--12----------|
B---------------7--9--7-----------------------|-----------0-----------------|
G------------7-----------9--------------------|-----------------------------|
D---------9-----------------------------------|-----------------------------|
A------9--------------------------------------|-----7-----------------------|
E---7-----------------------------------------|--0--------------------------|

  con cejilla de fa# pero con el dedo medio en el 7 de la quinta cuerda y el anular en 
7 de la D para poder llegar al 8 de la B
e-------------------------5-----5--------5-------------------------------|--|
B---------------5------------------8-------------------------------------|--|
G------------5-----5----------------------------5------------------------|--|
D---------7-----------7------7--------7-----7------7---------------------|--|
A------7-----------------------------------------------------------------|--|
E---5--------------------------------------------------------------------|--|

e--------------------------------7-------------5---------|--|
B---------------5-------------------8-------------5------|--|
G------------5-----5-------------------------------------|--|
D---------7-----------7----------------------------------|--|
A------7---------------------7-------------7-------------|--|
E---5---------------------5-------------5----------------|--|

con cejilla de fa# pero con el dedo medio en el 7 de la quinta cuerda
e-------------------------5-----5--------5-------------------------------|--|
B---------------5------------------8-------------------------------------|--|
G------------5-----5----------------------------5------------------------|--|
D---------7-----------7------7--------7-----7------7---------------------|--|
A------7-----------------------------------------------------------------|--|
E---5--------------------------------------------------------------------|--|

e--------------------------------7-------------5---------|--|
B---------------5-------------------8-------------5------|--|
G------------5-----5-------------------------------------|--|
D---------7-----------7----------------------------------|--|
A------7---------------------7-------------7-------------|--|
E---5---------------------5-------------5----------------|--|

se repite todo cuatro veces

Nota: sin final aún.

se aceptan críticas

cela_999@hotmail.com
Related for Animusic - Aqua Harp tab
Advertisement will be closed in 10 seconds