Song name
# A B C D E F G H I J K L M N O P Q R S T U V W X Y Z

Misc Unsigned Bands - Animusic - Aqua Harp tab

Intro

Aqua Harp de Animusic
by Ahuizotl Ceja Lemus
cela_999@hotmail.com

e-------------0--7--|------0-------5---0---7---0----------------------|-----|
B----------0--------|----------0-------------------0------------------|-----|
G-------------------|-------------------------------------------------|-----|
D-------------------|----------------------------------7--------------|-----|
A----7--------------|---7----------------------------------7------0---|-----|
E-------------------|-------------------------------------------------|-----|

e---------------0-------0-----------|---------------------------0-----------|
B-----------0-------8-------0-------|---------------0---------------8-------|
G-------------------------------6---|-------------------6---7---------------|
D-----------------------------------|-----------7---------------------------|
A-------7---------------------------|---0---7-------------------------------|
E---0-------------------------------|---------------------------------------|
Tap to rate this tab
 
# A B C D E F G H I J K L M N O P Q R S T U V W X Y Z