Guitaretab - guitar tabs
Song name
# A B C D E F G H I J K L M N O P Q R S T U V W X Y Z

Misc Unsigned Bands - Speed - No Dawn For Mankind tab

                          No Dawn for Mankind

        Intro X3      X2                                 X4
|---------------------|-----------------------|-----------------------|
|---------------------|-----------------------|-----------------------|
|---------------------|-----------------------|-----------------------|
|--2-------3-2-3-2----|---5-5-5-4-4-4-3-3-----|-----------------------|
|--2-------2-2-2-2----|---5-5-5-4-4-4-3-3-----|-----------3-2---------|
|--0-0-0-0------------|---3-3-3-2-2-2-1-1-----|---0-0-0-0-----3-2-----|

        Verse Riff X8
|---------------------------------|
|---------------------------------|
|---------------------------------|
|-------------------------4-4-1-1-|
|-------------------------2-2-3-3-|
|-0-0-0-0-0-0-0-0-0-0-0-0---------|

           Chorus X4                            Tapping X16
|------------------------------------------|-16-13-15-13-16-13-14-13--|
|------------------------------11-11-11-11-|--------------------------|
|-9-9-9-9-9-9-9-9--------------------------|--------------------------|
|-9-9-9-9-9-9-9-9--10-10-10-10-------------|--------------------------|
|-7-7-7-7-7-7-7-9--8--8--8--8--------------|--------------------------|
|------------------------------------------|-------------------------|
[ Tab from: http://www.guitaretab.com/m/misc-unsigned-bands/182506.html ]
        Verse Riff X8
|---------------------------------|
|---------------------------------|
|---------------------------------|
|-------------------------4-4-1-1-|
|-------------------------2-2-3-3-|
|-0-0-0-0-0-0-0-0-0-0-0-0---------|

           Chorus X4
|------------------------------------------|--------------------------|
|------------------------------11-11-11-11-|--------------------------|
|-9-9-9-9-9-9-9-9--------------------------|--------------------------|
|-9-9-9-9-9-9-9-9--10-10-10-10-------------|----15-------------2------|
|-7-7-7-7-7-7-7-9--8--8--8--8--------------|----15----slide----2------|
|------------------------------------------|----13-------------0------|

         Tapping X16                          solo X4
|--16-13-15-13-16-13-14-13--|--12-12-14-12-12-15-12-12-14-12-12-15----|
|---------------------------|-----------------------------------------|
|---------------------------|-----------------------------------------|
|---------------------------|-----------------------------------------|
|---------------------------|-----------------------------------------|
|---------------------------|-----------------------------------------|









         Ending Riff                                Outro
|------------------------------------|--------------------------------|
|------------------------------------|--------------------------------|
|------------------------------------|--------------------------------|
|--2-2-2-2-2-2-2-2--3-3-3-3-3-3-3-3--|-------2------------------------|
|--2-2-2-2-2-2-2-2--3-3-3-3-3-3-3-3--|-------2------------------------|
|--0-0-0-0-0-0-0-0--1-1-1-1-1-1-1-1--|-------0------------------------|
  
Tabbed by: Zane Gamoke

Related for Speed - No Dawn For Mankind tab