Song name
# A B C D E F G H I J K L M N O P Q R S T U V W X Y Z

Misc Unsigned Bands - Mansions - Tangerine Acoustic tab

It's a pretty simple tab.
Great song too. :) Compliments to mansions for being such a great musician one of the 
in my opinion.

D#-------------------------------------------|
A#-------------------------------------------|
F#-------------------------------------------|
C#---0-----0----------0-----------0--------0-| repeat.
G#-------------------------------------------|
D#-7---7|3-----3-3/10----10-10\5----5-5/7----|

Chords

played halfway through

-------------------------------------|
-------------------------------------|
-------------------------------------|
--9---5---12--7----------------------|
--9---5---12--7----------------------|
--7---3---10--5----------------------|

the other part.

D#-------------------------------------------|
A#-------------------------------------------|
F#-------------------------------------------|
C#----4-4-----4-4-----4--4-0-7---------------|
G#-------------------------------------------|
D#--5------3-------0-------------------------|

second time you play 4 4 0
Tap to rate this tab
 
# A B C D E F G H I J K L M N O P Q R S T U V W X Y Z