Song name
# A B C D E F G H I J K L M N O P Q R S T U V W X Y Z

Misc Unsigned Bands - The Galacticos - Humble Crumble tab

e|-------------------| x2
B|--10-10-12h10------|
G|--------------11---|
D|-------------------|
A|-------------------|
E|-------------------|

e|-----------------------------| 
B|--10-10-12h10-12-14-12-10----|
G|-----------------------------|
D|-----------------------------|
A|-----------------------------|
E|-----------------------------|

e|-------------------| x2
B|--10-10-12h10------|
G|--------------11---|
D|-------------------|
A|-------------------|
E|-------------------|

e|-----------------------------| 
B|--10-10-12h10-12-14-12-10----|
G|-----------------------------|
D|-----------------------------|
A|-----------------------------|
E|-----------------------------|

e|-------------------| 
B|--10-10-12h10------|
G|--------------11---|
D|-------------------|
A|-------------------|
E|-------------------|


e|---------------------------------12-------14-12--------| 
B|--10-10-12h10-----10-10-12h12-14----14-12-------14-----|
G|--------------11---------------------------------------|
D|-------------------------------------------------------|
A|-------------------------------------------------------|
E|-------------------------------------------------------|

e|-------------------| x2 (muted)
B|--10-10-12h10------|
G|--------------11---|
D|-------------------|
A|-------------------|
E|-------------------| 


e|--------------------12--------14(x7)-12-(x7)--------| (muted)
B|--10-10-12h10-12-14----14-----14-----12-----------|
G|--------------------------------------------------|
D|--------------------------------------------------|
A|--------------------------------------------------|
E|--------------------------------------------------|


Tap to rate this tab
# A B C D E F G H I J K L M N O P Q R S T U V W X Y Z