Song name
# A B C D E F G H I J K L M N O P Q R S T U V W X Y Z

Misc Unsigned Bands - Poopy Dicks Twelve - Hour Glass tab

CAPO 3

INTRO
e-------------3-3-3-3------------3-3-3-3------------3-3-3--3-3-3------|
B-------3-----3-3-3-3--------3---3-3-3-3--------2---3-3-3--3-3-3------|
G-------0-----0-0-0-0--------2---2-2-2-2--------0---0-0-0--2-2-2------|
D-------------0-0-0-0------------0-0-0-0------------2-2-2--x-x-x------|
A-------------2-2-2-2------------0-0-0-0---3-3------x-x-x--x-x-x------|
E--3-3--------3-3-2-2---2-2------2-2-2-2------------x-x-x--x-x-x------|
              u d u d            u d u d            d d d  d d d

Verse
     G           C   
e----3-----3-----3---3---3--------------|
B----3-----3-----3---3---3--------------|
G----0-----2-----0---0---2--------------|
D----0-----0-----2---2---x--------------|
A----2-----0---2-3---x---x--------------|
E--3-3---2-2---x-x---x---x--------------|

Chorus
   G   C   G   C              End of Chorus
e--3---3---3---3----------------3---3----------3-------------|
B--3---3---3---3----------------3---3----------3-------------|
G--0---0---0---0----------------2---0----------0-------------|
D--0---2---0---2----------------x---2----------3-------------|
A--2---3---2---3----------------x---x----------2-------------|
E--3---x---3---x----------------x---x----------x-------------|
     STRUM                                   STRUM       
Tap to rate this tab
# A B C D E F G H I J K L M N O P Q R S T U V W X Y Z