Song name
# A B C D E F G H I J K L M N O P Q R S T U V W X Y Z

Misc Unsigned Bands - Thy Light - I Am The Bitter Taste Of G tab

E-----------------------------------------------------------------------|
B-----------------------------------------------------------------------|
G-----------------------------------------------------------------------|
D--9--9--9--9--10-10-10-10-10-9--9--9--9--12-12-10-10-------------------|
A--0--0--0--0--0--0--0--0--0--0--0--0--0--0--0--0--0--------------------|
E-----------------------------------------------------------------------|  X1


E------------------------------------------------------------------------|
B------------------------------------------------------------------------|
G------------------------------------------------------------------------|
D--9--9--9--9--10-10-9--9--7--7--7--7--9--9--7--7------------------------|
A--7--7--7--7--7--7--7--7--5--5--5--5--5--5--5--5------------------------|
E------------------------------------------------------------------------| X1 then 
from the top
Tap to rate this tab
 
# A B C D E F G H I J K L M N O P Q R S T U V W X Y Z