Guitaretab - guitar tabs
Song name
# A B C D E F G H I J K L M N O P Q R S T U V W X Y Z

Misc Unsigned Bands - Nostalgie - As I Watch The Moon tab

E-------------------------------------------------------------------------------|
B-------------------------------------------------------------------------------|
G-------------------------------------------------------------------------------|
D-----10----10-----10---10-----10----10-----10-----10---------------------------|
A----8-----8------8----8------8-----8------8------8-----------------------------|
E-------------------------------------------------------------------------------|
Play This 1 Time

[ Tab from: http://www.guitaretab.com/m/misc-unsigned-bands/182707.html ]
E--------------------------------------------------------------------------------|
B--------------------------------------------------------------------------------|
G--------------------------------------------------------------------------------|
D-------10-------10--------10-------10-------9------9------9-----9---------------|
A-----0--------0----------0--------0--------0------0------0------0---------------|
E--------------------------------------------------------------------------------|
 Play This 1 Time, Then Repeat Everything
Related for Nostalgie - As I Watch The Moon tab
Advertisement will be closed in 10 seconds