Song name
# A B C D E F G H I J K L M N O P Q R S T U V W X Y Z

Misc Unsigned Bands - Autoplay Conspiracy - Home tab

Home...


D|-----------------------------------|
A|-----------------------------------|
F|-14-14---12-12--10-10-10-10-10-10--| 3x's
C|-12-12---10-10--8--8--8--8--8--8---|
G|-12-12---10-10--8--8--8--8--8--8---|
C|-----------------------------------|

D|------------------------|
A|------------------------|
F|-14-14---12-12---17-17--| 
C|-12-12---10-10---15-15--|
G|-12-12---10-10---15-15--|
C|------------------------|

D|-----------------------------------|
A|-----------------------------------|
F|-----------------------------------| 2x's
C|-----------------------------------|
G|-000-0--0-0--0-0--0-0--000-0--0-0--|
C|-111-1--1-1--1-1--1-1--111-1--1-1--|
   ... .  . .  . .  . .  ... .  . .

D|-----------------------------------|
A|-----------------------------------|
F|-----------------------------------| 2x's 
C|-000-0--0-0--0-0--0-0--000-0--0-0--|
G|-000-0--0-0--0-0--0-0--000-0--0-0--|
C|-000-0--0-0--0-0--0-0--000-0--0-0--|
   ... .  . .  . .  . .  ... .  . .

D|-----------------------------------------------------------------------|
A|-----------------------------------------------------------------------|
F|-----------------------------------------------------------------------|  
C|-000-000-----000-------------------000-000-----000---------------------|
G|-000-000-8p7-000-10h12-8h10-7h8-4--000-000-8p7-000-12h13-10h12-8h10-7--|
C|-000-000-----000-------------------000-000-----000---------------------|
   ... ...     ...                   ... ...     ...

D|--------------------------------------------------------------------|
A|--------------------------------------------------------------------|
F|--------------------------------------------------------5h7h8-------| 
C|-000-000-7p5-000------------000-000-8p7-000-------5h7h8-------5h7h8-|
G|-000-000-----000-5h7-8-7-4--000-000-----000-5h7h8-------------------|
C|-000-000-----000------------000-000-----000-------------------------|
   ... ...     ...            ... ...     ...

D|-------------------------------------------------------------------------|
A|------------------------------3h5-----------------------------------2h4h5|
F|----------------------3h5-5h7---------------------------------3h5h6------|
C|-000-000------000-5h7-------------000-000-----000-------3h5h6------------|
G|-000-000-10p8-000-----------------000-000-5h6-000-3h5h6------------------|
C|-000-000------000-----------------000-000-----000------------------------|
   ... ...      ...                 ... ...     ...

D|--------------------|
A|--------------------|
F|--------------------| 2x's 
C|-000-000-0-0-0-000--|
G|-000-000-0-0-0-000--|
C|-000-000-0-0-0-000--|
   ... ... . . . ...

D|-------|
A|-------|
F|-14----| 
C|-13----|
G|-12----|
C|-------|

1st guitar
D|-----------------------------------------------------------------------|
A|-----------------------------------------------------------------------|
F|---------------------------------------------33335555------------------| 
C|-----------------88887777------------55557777--------33335555----------|
G|-5555777788887777--------101010108888------------------------22223333--|
C|-----------------------------------------------------------------------|

D|-----------------------------------------------------------------------|
A|-----------------------------------------------------11113333----------|
F|---------------------------------------------33335555------------------| 
C|-----------------88887777------------55557777----------------33332222--|
G|-5555777788887777--------101010108888----------------------------------|
C|-----------------------------------------------------------------------|

2nd guitar
D|--------------------|
A|--------------------|
F|--------------------| 4x's
C|-000-000-0-0-0-000--|
G|-000-000-0-0-0-000--|
C|-000-000-0-0-0-000--|
   ... ... . . . ...

both guitars
D|--------------------|
A|--------------------|
F|--------------------| 8x's
C|-000-000-0-0-0-000--|
G|-000-000-0-0-0-000--|
C|-000-000-0-0-0-000--|
   ... ... . . . ...

D|----------------------------------------------------|
A|----------------------------------------------------|
F|-777-999-10101010101010101010-55555555-77777777-----| 2x's
C|-555-777-8-8-8-8-8-8-8-8-8-8--33333333-55555555-----|
G|-555-777-8-8-8-8-8-8-8-8-8-8--33333333-55555555-----|
C|----------------------------------------------------|

D|-----------------------|
A|-----------------------|
F|-----------------------| 
C|-000000000--000000000--|
G|-000000000--000000000--|
C|-000000000--000000000--|
   .........  .........

1st guitar plays alone
D|-----------------------------------------|
A|-----------------------------------------|
F|-----------------------------------------| 
C|-----------------------------------------|
G|-----------------------------1-1-1-1-1-1-|
C|-0-3-6--0-0-3-6--0-0-3-6--0--2-2-2-2-2-2-|
                               . . . . . . 

both guitars
D|--------------------------------------|
A|--------------------------------------|
F|--------------------------------------| 3x's
C|-0-3-6--0-0-3-6--0-0-3-6--------------|
G|-0-3-6--0-0-3-6--0-0-3-6--1-1-1-1-1-1-|
C|-0-3-6--0-0-3-6--0-0-3-6--2-2-2-2-2-2-|
                            . . . . . .

D|--------------------------------------|
A|--------------------------------------|
F|--------------------------------------| 
C|-0-3-6--0-0-3-1--0-0-3-6--------------|
G|-0-3-6--0-0-3-1--0-0-3-6--1-1-1-1-1-1-|
C|-0-3-6--0-0-3-1--0-0-3-6--2-2-2-2-2-2-|
                            . . . . . . 

1st guitar
D|------|
A|--6~--|
F|--9~--| 
C|------|
G|------|
C|------|

2nd guitar
D|------|
A|------|
F|------| 
C|------|
G|--0~--|
C|--1~--|
    .
Tap to rate this tab
# A B C D E F G H I J K L M N O P Q R S T U V W X Y Z