Song name
# A B C D E F G H I J K L M N O P Q R S T U V W X Y Z

Misc Unsigned Bands - Autoplay Conspiracy - Waves Of Judgment tab

Waves of Judgment


u kno the strumming patterns
there all 16th notes 
D|---------------------------|
A|---------------------------|
F|---------------------------| 4x's
C|---------------------------|
G|-5---7---8---1---3---0-----|
C|---------------------------|

i guess u could call this a chorus cause it's repeated 
like 2 or 3 times throughout the song
D|-------------------------------|
A|-------------------------------|
F|-10--------12--------9---------| 2x's
C|-8--(8x's)-10-(3x's)-7-(6x's)--|
G|-8---------10--------7---------|
C|-------------------------------|

D|----------------------------------------|
A|----------------------------------------|
F|----------------------------------------| 2x's
C|-000-000--4---------000-000--5----------|
G|-000-000--4--(2x's)-000-000--5--(2x's)--|
C|-000-000--4---------000-000--5----------|
... ... ... ... 
repeat chorus 4 x's

intro to breakdown
D|--------------------|
A|--------------------|
F|--------------------| 4x's
C|-000-000-000-000----|
G|-000-000-000-000----|
C|-000-000-000-000----|
... ... ... ...
on fourth repetition
D|------------|
A|--11---11---|
F|--14---14---|
C|------------|
G|------------|
C|------------|
breakdown
D|--------------------|
A|--------------------|
F|--------------------| 4x's
C|-000-000-000-000----|
G|-000-000-000-000----|
C|-000-000-000-000----|
... ... ... ...

then maybe a small fill and:
D|--------------------------------------------|
A|--------------------------------------------|
F|--------------------------------------------| 
C|-0-0-----0-00---------0-0-----0-00-3-5-3-5--|
G|-0-0-3-5-0-00-3-5-----0-0-3-5-0-00-----3-5--|
C|-0-0-----0-00-----3-5-0-0-----0-00-----3-5--|
. .. . ..
D|--------------------------------------------|
A|--------------------------------------------|
F|------------------0-2-----------------------| 
C|-0-0-----0-00-3-5-----0-0-----0-00----------|
G|-0-0-3-5-0-00---------0-0-3-5-0-00-3-5------|
C|-0-0-----0-00---------0-0-----0-00-----3-5--|
. .. . ..
repeat 2x's

then goes back into the chorus
D|-------------------------------|
A|-------------------------------|
F|-10--------12--------9---------| 2x's
C|-8--(8x's)-10-(3x's)-7-(6x's)--|
G|-8---------10--------7---------|
C|-------------------------------|

D|----------------------------------------|
A|----------------------------------------|
F|----------------------------------------| 2x's
C|-000-000--4---------000-000--5----------|
G|-000-000--4--(2x's)-000-000--5--(2x's)--|
C|-000-000--4---------000-000--5----------|
... ... ... ... 
repeat chorus 4 x's

then...
keith is playing this
D|--------------------------------|
A|--------------------------------|
F|--------------------------------|
C|--------------------------------|
G|--------------------------------|
C|-8-(8x's)--10-(3x's)--7-(6x's)--|
this is gonna be repeated alot.

and this is what i have written for lead.
but u can change it and make it better.
D|----------------|
A|----------------|
F|-10p9p0---------| 6x's
C|--------10h12---|
G|----------------|
C|----------------|

D|-------------------------------|
A|-------------------------------|
F|-7h9p0-9h10p0-10h12p0-12h14p0--|
C|-------------------------------|
G|-------------------------------|
C|-------------------------------|

i have no idea how many times its gonna be repeated.
but we'll figure it out at practice. but this will
be the end of the song.

Tap to rate this tab
 
# A B C D E F G H I J K L M N O P Q R S T U V W X Y Z