Song name
# A B C D E F G H I J K L M N O P Q R S T U V W X Y Z

Misc Unsigned Bands - Despise This God - Hang The Teacher tab

....=palm mute
ph=pinch harmonic
x=mute string
s=slide to string
b=bend

opening riff(intro)-both guitars

1----------------------------|
2----------------------------|
3----------------------------|
4-1---3----------------3---5-|
5-1---3---0-00-0-0-----1---3-|
6-1---3---0-00-0-0-----------|
            ..

1----------------------------------------------------|
2----------------------------------------------------|
3----------------------------------------------------|
4-----------------1-1-1------------------3-3-3-5-5-5-|
5-0-00-0-00-0-00--1-1-1--0-00-0-00-0-00--3-3-3-5-5-5-|
6-0-00-0-00-0-00--1-1-1--0-00-0-00-0-00--3-3-3-5-5-5-|   repeat 3x
    ..   ..   ..           ..   ..   ..

1------------------------------|
2------------------------------|
3-------------------------3ph--|
4-----------------1-1-1-3------|
5-0-00-0-00-0-00--1-1-1-3------|
6-0-00-0-00-0-00--1-1-1-3------|
    ..   ..   ..

verse-lead guitar
1------------------------------------------|
2------------------------------------------|
3------------------------------------------|
4----------------3-2-----------5-3-2-3-2---|
5-000--2-3-2-000----3-000-2-3-2----------3-|
6-000--------000------000------------------| repeat 4x
  ...        ...      ...

verse-rhythem
1-------------------------------------------|
2-------------------------------------------|
3-------------------------------------------|
4-----1-1-1-----3-3-3-----1-1-1-3-3-3-5-5-5-|
5-000-1-1-1-000-3-3-3-000-1-1-1-3-3-3-5-5-5-|
6-000-1-1-1-000-3-3-3-000-1-1-1-3-3-3-5-5-5-| repeat 4x
  ...       ...       ...

pre chorus-both guitars
1-------------------|
2-------------------|
3-------------------|
4-1-3-----------3-5-|
5-1-3-0-00-0-0--1-3-|
6-1-3-0-00-0-0------|

chorus-lead
1---------------------------------------|
2---------------------------------------|
3---------------------------------------|
4----8--7----10----8-7--8-7-------------|
5-x5--x5-x5x5--x7x7---8-----3-3-3-5-5-5-|
6---------------------------------------|

1------------------------------------------------------|
2------------------------------------------------------|
3------------------------------------10-12-10-9-10-9---|
4---8---7----10----8-7--------8s10-12---------------10-|
5-x5--x5-x5x5--x7x7----8--8-10-------------------------|
6------------------------------------------------------|

bridge-both guitars
1----------------------------------------------------------------|
2----------------------------------------------------------------|
3----------------------------------------------------------------|
4----------------------------------------------------------------|
5-5-55-7-8-7----5-6----2-3-----5-7-8-7-5-----10-8-7------12-10-9-|
6-5-55------3-33---2-33----5-55---------7777--------9999---------| repeat 2x
    ..        ..     ..      ..          ...         ...

solo
1-----------17b17b-17-15-14-15-14---------------------------------------|
2-15b17b19b----------------------15-17-15-14-15-14----------------------|
3------------------------------------------------15s1715-14-15-14-------|
4-----------------------------------------------------------------15s17-|
5-----------------------------------------------------------------------|
6-----------------------------------------------------------------------|

1------------------------13-15---------19------------18-------------|
2----------------------13-----15-----16--17---------15--16-------15-|
3--------------------13--------15--15------18-----14------16----15--|
4-------13-15---15-13------------16---------16--17---------17--15---|
5-13-15-------13------------------------------15--------------15----|
6-------------------------------------------------------------------|

1--------------------------------|
2-17b17b17-15-14-15-14---14b ----|
3---------------------15-14b-12b-|
4--------------------------------|
5--------------------------------|
6--------------------------------|

outro
1--------------|
2--------------|
3--------------|
4-1-3----------|
5-1-3-0-00-0-0-|
6-1-3-0-00-0-0-|
Tap to rate this tab
 
# A B C D E F G H I J K L M N O P Q R S T U V W X Y Z