Song name
# A B C D E F G H I J K L M N O P Q R S T U V W X Y Z

Misc Unsigned Bands - Dr Kelso - Tuscaloosa Heart tab

from scrubs season 1 episode 21
where Dr Kelso plays the guitar at the end
this is one good tab ;)


Normal Tuning
E A D G B E

----------------------------10--|
----------------------------9---|
---1----2---4---2---2---2---9---|
---2----2---2---2---2---2---9---|
---2----4---5---4---1---4-------|
-0-0---0---0---0---0---0--------|

-----5----------------3----|
-----5-7-7^-5---5-----2----|
-----6--------6-----2-2----|
-------------------2--2----|
---------------------------|
-0-5-----------------------|

-------------------|
-------------------|
---1----2---4---2--|
---2----2---2---2--|
---2----4---5---4--|
-0-0---0---0---0---|

-------2---------3p0--------------------------------|
-------0-------------3p0----------------------------|
-----2-2-----------------4-3p2p0-----------------2--|
----1--1---------------------------2p0-2--------1---|
-0-2---2-----------------------------------0-1-2----|
-------------3p0------------------------------------|

(repeat from beginning)

Listen to the song in the video if u dont understand the timing,
its a good song
youre welcome...
Tap to rate this tab
 
# A B C D E F G H I J K L M N O P Q R S T U V W X Y Z