Guitaretab - guitar tabs
Song name
# A B C D E F G H I J K L M N O P Q R S T U V W X Y Z

Misc Unsigned Bands - Tourture - The Servant tab

-------------------------------------------------------------------------------
                            TOURTURE  The Servant
-------------------------------------------------------------------------------
Tabbed By: 0GibsonLesPaul0

Tuning: Drop C



INTRO

d|----------------------------------------------------------|
A|----------------------------------------------------------|
F|----------------------------------------------------------|
C|----------------------------------------------------------|
G|-----5-----7-----8-----7---7-8-----5-----7-----8---3-3h5--|
C|-0-0--0-0---0-0--0-0---0-----0-0---0-0--0-0---0--------|
   . .   . .   . .   . .   .     . .   . .   . .   .
 |---------------------------2x---------------------------|


CHORUS

d|---------------------------------------------------|
A|---------------------------------------------------|
F|---------------------------------------------------|
C|-0----5----7----8----0----5----3----1p0h1p0h1p0h1p-|
G|-0----5----7----8----0----5----3----1p0h1p0h1p0h1p-|
C|-0----5----7----8----0----5----3----1p0h1p0h1p0h1p-|
  |-----------------------2x------------------------|

d|-------------------------------|
A|-------------------------------|
F|-------------------------------|
C|-0-0-0-0-1p0h1p0h1p0h1p0-0-0-0-|
G|-0-0-0-0-1p0h1p0h1p0h1p0-0-0-0-|
C|-0-0-0-0-1p0h1p0h1p0h1p0-0-0-0-|



VERSE 2X

Palm mute throughout.

Section 1
d|-------------------------------|
A|-------------------------------|
F|-------------------------------|
C|-------------------------------|
G|-----5-----7-----8-----7---7-8-|
C|-0-0--0-0---0-0--0-0---0-----|


Section 2
d|-------------------------------|
A|-------------------------------|
F|-------------------------------|
C|-----5-----7-----8-----7---7-8-|
G|-------------------------------|
C|-5-5--5-5---5-5---5-5--5-----|


Section 3
d|----------------------------------|
A|----------------------------------|
F|----------------------------------|
C|-------3-----5-----6-----5----5-6-|
G|----------------------------------|
C|---3-3---3-3---3-3---3-3---3------|

d|-------------------------------|
A|-------------------------------|
F|-------------------------------|
C|-------------------------------|
G|-----5-----7-----8-----3---3-5-|
C|-0-0--0-0---0-0--0-0---0-----|


BRIDGE

d|----------------------------------------------------------|
A|----------------------------------------------------------|
F|----------------------------------------------------------|
C|----------------------------------------------------------|
G|-----5-----7-----8-----7---7-8-----5-----7-----8---3-3h5--|
C|-0-0--0-0---0-0--0-0---0-----0-0---0-0--0-0---0--------|
   . .   . .   . .   . .   .     . .   . .   . .   .



CHORUS

d|---------------------------------------------------|
A|---------------------------------------------------|
F|---------------------------------------------------|
C|-0----5----7----8----0----5----3----1p0h1p0h1p0h1p-|
G|-0----5----7----8----0----5----3----1p0h1p0h1p0h1p-|
C|-0----5----7----8----0----5----3----1p0h1p0h1p0h1p-|
  |-----------------------2x------------------------|

d|-------------------------------|
A|-------------------------------|
F|-------------------------------|
C|-0-0-0-0-1p0h1p0h1p0h1p0-0-0-0-|
G|-0-0-0-0-1p0h1p0h1p0h1p0-0-0-0-|
C|-0-0-0-0-1p0h1p0h1p0h1p0-0-0-0-|

PRE VERSE | 2X


d|----------------------------------------------------------|
A|----------------------------------------------------------|
F|----------------------------------------------------------|
C|----------------------------------------------------------|
G|-----5-----7-----8-----7---7-8-----5-----7-----8---3-3h5--|
C|-0-0--0-0---0-0--0-0---0-----0-0---0-0--0-0---0--------|
   . .   . .   . .   . .   .     . .   . .   . .   .




VERSE 2X

Palm mute throughout.

Section 1
d|-------------------------------|
A|-------------------------------|
F|-------------------------------|
C|-------------------------------|
G|-----5-----7-----8-----7---7-8-|
C|-0-0--0-0---0-0--0-0---0-----|


Section 2
d|-------------------------------|
A|-------------------------------|
F|-------------------------------|
C|-----5-----7-----8-----7---7-8-|
G|-------------------------------|
C|-5-5--5-5---5-5---5-5--5-----|


Section 3
d|----------------------------------|
A|----------------------------------|
F|----------------------------------|
C|-------3-----5-----6-----5----5-6-|
G|----------------------------------|
C|---3-3---3-3---3-3---3-3---3------|

d|-------------------------------|
A|-------------------------------|
F|-------------------------------|
C|-------------------------------|
G|-----5-----7-----8-----3---3-5-|
C|-0-0--0-0---0-0--0-0---0-----|


CHORUS
[ Tab from: http://www.guitaretab.com/m/misc-unsigned-bands/182897.html ]
d|---------------------------------------------------|
A|---------------------------------------------------|
F|---------------------------------------------------|
C|-0----5----7----8----0----5----3----1p0h1p0h1p0h1p-|
G|-0----5----7----8----0----5----3----1p0h1p0h1p0h1p-|
C|-0----5----7----8----0----5----3----1p0h1p0h1p0h1p-|
  |-----------------------2x------------------------|

d|-------------------------------|
A|-------------------------------|
F|-------------------------------|
C|-0-0-0-0-1p0h1p0h1p0h1p0-0-0-0-|
G|-0-0-0-0-1p0h1p0h1p0h1p0-0-0-0-|
C|-0-0-0-0-1p0h1p0h1p0h1p0-0-0-0-|


SOLO

d|---------------------------------------5h85h85h85h85h8p5/-----------------|
A|---------------------------------------------------------8p5--------------|
F|--------5-5-5h7~-7-7-7b9r7-5h7-5h7-5h7-----------------------7-5-7--------|
C|-7-7-77-------------------------------------------------------------5-5-7-|
G|--------------------------------------------------------------------------|
C|--------------------------------------------------------------------------|




d|------------------------------|
A|------------------------------|
F|------------------------------|
C|-7~~~---5-[7]~-----5-7--5-7~--|
G|------------------------------|
C|------------------------------|


PRE VERSE | 2X


d|----------------------------------------------------------|
A|----------------------------------------------------------|
F|----------------------------------------------------------|
C|----------------------------------------------------------|
G|-----5-----7-----8-----7---7-8-----5-----7-----8---3-3h5--|
C|-0-0--0-0---0-0--0-0---0-----0-0---0-0--0-0---0--------|
   . .   . .   . .   . .   .     . .   . .   . .   .


VERSE 2X

Palm mute throughout.

Section 1
d|-------------------------------|
A|-------------------------------|
F|-------------------------------|
C|-------------------------------|
G|-----5-----7-----8-----7---7-8-|
C|-0-0--0-0---0-0--0-0---0-----|


Section 2
d|-------------------------------|
A|-------------------------------|
F|-------------------------------|
C|-----5-----7-----8-----7---7-8-|
G|-------------------------------|
C|-5-5--5-5---5-5---5-5--5-----|


Section 3
d|----------------------------------|
A|----------------------------------|
F|----------------------------------|
C|-------3-----5-----6-----5----5-6-|
G|----------------------------------|
C|---3-3---3-3---3-3---3-3---3------|

d|-------------------------------|
A|-------------------------------|
F|-------------------------------|
C|-------------------------------|
G|-----5-----7-----8-----3---3-5-|
C|-0-0--0-0---0-0--0-0---0-----|


CHORUS

d|---------------------------------------------------|
A|---------------------------------------------------|
F|---------------------------------------------------|
C|-0----5----7----8----0----5----3----1p0h1p0h1p0h1p-|
G|-0----5----7----8----0----5----3----1p0h1p0h1p0h1p-|
C|-0----5----7----8----0----5----3----1p0h1p0h1p0h1p-|
  |-----------------------2x------------------------|

d|-------------------------------|
A|-------------------------------|
F|-------------------------------|
C|-0-0-0-0-1p0h1p0h1p0h1p0-0-0-0-|
G|-0-0-0-0-1p0h1p0h1p0h1p0-0-0-0-|
C|-0-0-0-0-1p0h1p0h1p0h1p0-0-0-0-|


INTRULUDE | 8x

 palm mute throughout.
d|------------------------------------------------------------------------|
A|------------------------------------------------------------------------|
F|------------------------------------------------------------------------|
C|-----0------0--------1--------1-------3-----3-----5-----5-----8-----7---|
G|---0---0-0---0----1---1----1---1----3-3---3-3---5-5---5-5---8-8---7-7--|
C|-0------0------0-1-------1-1------1-3---3-3---3-5---5-5---5-8---8-7---7-|


PRE CHORUS |2X

d|----------------------------------------------------------|
A|----------------------------------------------------------|
F|----------------------------------------------------------|
C|----------------------------------------------------------|
G|-----5-----7-----8-----7---7-8-----5-----7-----8---3-3h5--|
C|-0-0--0-0---0-0--0-0---0-----0-0---0-0--0-0---0--------|
   . .   . .   . .   . .   .     . .   . .   . .   .


CHORUS

d|---------------------------------------------------|
A|---------------------------------------------------|
F|---------------------------------------------------|
C|-0----5----7----8----0----5----3----1p0h1p0h1p0h1p-|
G|-0----5----7----8----0----5----3----1p0h1p0h1p0h1p-|
C|-0----5----7----8----0----5----3----1p0h1p0h1p0h1p-|
  |-----------------------2x------------------------|

d|-------------------------------|
A|-------------------------------|
F|-------------------------------|
C|-0-0-0-0-1p0h1p0h1p0h1p0-0-0-0-|
G|-0-0-0-0-1p0h1p0h1p0h1p0-0-0-0-|
C|-0-0-0-0-1p0h1p0h1p0h1p0-0-0-0-|


d|-----------------------------|
A|-----------------------------|
F|-7-9-10-6~---7-9-10-12b13r2~-|
C|-----------------------------|
G|-----------------------------|
C|-----------------------------|


OUTRO

d|----------------------------------------------------------|
A|----------------------------------------------------------|
F|----------------------------------------------------------|
C|----------------------------------------------------------|
G|-----5-----7-----8-----7---7-8-----5-----7-----8---3-3h5--|
C|-0-0--0-0---0-0--0-0---0-----0-0---0-0--0-0---0--------|
   . .   . .   . .   . .   .     . .   . .   . .   .

http://www.myspace.com/christianrockftw
Related for Tourture - The Servant tab