Guitaretab - guitar tabs
Song name
# A B C D E F G H I J K L M N O P Q R S T U V W X Y Z

Misc Unsigned Bands - Purplepuke - Love At Point Blank tab

Read the notes on the side!!!!



intro:

e|---7-------------7---------------------------------|
B|-9---5-4-5-----9---5-4-5---------------------------|
G|-----------4b------------4b------------------------|
D|---------------------------------------------------|
A|---------------------------------------------------|
E|---------------------------------------------------|

e|--7-7-7-7\5-5-5-5-5\4-4-4-4-4*let ring*-|
B|--9-9-9-9\7-7-7-7-----5-5-5-5*let ring*-|
G|----------------------------------------|
D|----------------------------------------|
A|----------------------------------------|(let the low E ring through this part)
E|-0--------------------------------------|

Verse:
e|------4------22-------4------22-------5-------55-------5------55----|
B|--------3----33---------3----33---------5-----55---------5----55----|
G|---4------4--44----4------4--44----6------6---66----6------6--66----|
D|---4---------44----4---------44----7----------77----7---------77----|
A|-2-----------22--2-----------22---------------77--------------77----|(x2)
E|---------------------------------5------------55--5-----------55----|

Chorus:

e|--------------------------------------------------|
B|--------------------------------------------------|
G|-------------77777--------------------------------|
D|-------44444-77777-77777-22222--------------------|
A|-2-----44444-55555-77777-22222--------------------|(x2, 2nd time don't play the 
E|-0-----22222-------55555-00000--------------------|first chord just go to the F#m)

Interlude:
[ Tab from: http://www.guitaretab.com/m/misc-unsigned-bands/183056.html ]
e|---------------------------------------------|
B|---------------------------------------------|
G|---------------------------------------------|
D|---------------------------------------------|
A|-4444-4444-2---------------------------------|(palm muted)
E|-2222-2222-0*let ring*-----------------------|


repeat verse:
repeat chorus including the interlude:

bridge:

e|---7-------------7---------------------------------|
B|-9---5-4-5-----9---5-4-5---------------------------|
G|-----------4b------------4b------------------------|
D|---------------------------------------------------|
A|---------------------------------------------------|
E|---------------------------------------------------|

e|--7-7-7-7\5-5-5-5-5\4-4-4-4-4-----------|
B|--9-9-9-9\7-7-7-7-----5-5-5-5-----------|
G|----------------------------------------|
D|----------------------------------------|
A|----------------------------------------|(let the low E ring through this part)
E|-0--------------------------------------|

chorus:

e|--------------------------------------------------|
B|--------------------------------------------------|
G|-------------77777--------------------------------|
D|-------44444-77777-77777-22222--------------------|
A|-2-----44444-55555-77777-22222--------------------|(x2, 2nd time don't play the 
E|-0-----22222-------55555-00000--------------------|first chord just go to the F#m)

Interlude:

e|---------------------------------------------|
B|---------------------------------------------|
G|---------------------------------------------|
D|---------------------------------------------|
A|-4444-4444-2---------------------------------|(x4, still palm muted
E|-2222-2222-0---------------------------------|hold last chord going into outro)

Outro:

e|---7---------------|
B|-9---5-4-5---------|
G|-----------4b------|
D|-------------------|
A|-------------------|(x5, gradually slow down and let last note ring)
E|-------------------|



END!!!!!!
Related for Purplepuke - Love At Point Blank tab
Advertisement will be closed in 10 seconds