Guitaretab - guitar tabs
Song name
# A B C D E F G H I J K L M N O P Q R S T U V W X Y Z

Misc Unsigned Bands - Chase This City - Own The Town tab

-------------------------------------------------------------------------------
			     OWN THE TOWN - Chase This City
-------------------------------------------------------------------------------
Tabbed by: Zach Keenum
Email: chasethiscity@gmail.com

Tuning: Standard, Capo 2
Chords are noted as they actually are on the fretboard, NOT in relation to the capo. 
the strum pattern isn't reflected on the tab, but you can figure that out by listening to 
I'm sure.

ORDER:
Intro
Verse
Pre-chorus
Chorus
Verse
Chorus [Be advised there is NO prechorus before this one, this will not be noted in the tab below]
Bridge
Chorus
Outro

x = Mute
* = let note ring

INTRO (x2) (Guitar 1)

e|-0--0--0----0---0--0--0------0---0------0---0---0---0---|
B|-0--0--0----0---0--0--0------0---0------0---0---0---0---|
G|-11-11-11---11--11-11-11-----11--11-----10--10--11--11--|
D|-11-11-11---11--11-11-11-----11--11-----x---x---x---x---|
A|-9--9--9----0---0--0--0------x---x------11--11--11--11--|
E|-0--0--0----0---0--0--0------9---9------9---9---9---9---|

INTRO (Guitar 2)
e|---------------------------------------------------------------------------------------|
B|-------9---------9---------9---------11------------------------------------------------|
G|----11--11----11--11----11--11----11----11---------------------------------------------|
D|-11--------11--------11--------11------------------------------------------------------|
A|---------------------------------------------------------------------------------------|
E|---------------------------------------------------------------------------------------|

e|-----------------------------------------------------|
B|-------9----------9----------------------------------|
G|----11--11-----11--11-----11-10-11-----11-10-11------|
D|-11---------11---------11-----------11-----------11--|
A|-----------------------------------------------------|
E|-----------------------------------------------------|

VERSE (Guitar 1)(x2)
e|--0--0--0--0--0------------------------------0--0--0--0--0---|
B|--0--0--0--0--0------------------------------0--0--0--0--0---|
G|--11-11-11-11-11-----------------------------11-11-11-11-11--|
D|--11-11-11-11-11-----------------------------11-11-11-11-11--|
A|--9--9--9--9--9------------------------------8--8--8--8--8---|
E|--0--0--0--0--0------------------------------0--0--0--0--0---|
                   There's a party on tonight                But it ain't as
                   All the time                              You know we mean
                   She's the one across the room             With the walnut
                   You look there, she looks back            You feel the
e|--------------0--0--0--0-------0--0----------0--0------------------------------------|
B|--------------0--0--0--0-------0--0----------0--0------------------------------------|
G|--------------8--8--8--8-------4--4----------6--6------------------------------------|
D|--------------8--8--8--8-------4--4----------6--6------------------------------------|
A|--------------6--6--6--6-------0--0----------4--4------------------------------------|
E|-------------------------------------------------------------------------------------|
  cool as us...            cause we've got our game faces on
  business...              and we won't stop til we get it
  brown hair...            You've been staring down for hours
  butterflies attack...    Don't we all feel invincible?


VERSE (Guitar 2)(x2)(comes in on second part of verse)
e|-0--0--0--0--0---0---0---0---0---0-------------------------------------------|
B|-x--x--x--x--x---x---x---x---x---x-------------------------------------------|
G|-11-11-11-11-11--13--13--13--13--13------------------------------------------|
D|-x--x--x--x--x---x---x---x---x---x-------------------------------------------|
A|-9--9--9--9--9---11--11--11--11--11------------------------------------------|
E|-----------------------------------------------------------------------------|
   All the time, you know we mean business
   You look there, she looks back, you feel the butterflies attack

e|-0--0--0--0--0-----0---0---0---0--0---0*---|
B|-x--x--x--x--x-----x---x---x---x--x---x----|
G|-15-15-15-15-15----16--15--13--11-10--11*--|
D|-x--x--x--x--x-----x---x---x---x--x---x----|
A|-13-13-13-13-13----14--13--11--9--8---9*---|
E|-------------------------------------------|
             And we won't stop til we get it
                  Don't we all feel invincible?
[ Tab from: http://www.guitaretab.com/m/misc-unsigned-bands/183120.html ]
PRE-CHORUS (Guitar 1)
e|-0-0-------0-0-------0-0-------0-0--|
B|-0-0-------0-0-------0-0-------0-0--|
G|-4-4-------6-6-------8-8-------6-6--|
D|-4-4-------6-6-------8-8-------6-6--|
A|-0-0-------4-4-------6-6-------4-4--|
E|------------------------------------|
      I hope    you know   you mean the most
e|-0-0-------0-0------0---0---0---0--|
B|-0-0-------0-0------0---0---0---0--|
G|-4-4-------6-6------4---4---4---4--|
D|-4-4-------6-6------4---4---4---4--|
A|-0-0-------4-4------0---0---0---0--|
E|-----------------------------------|
      With our  luck I think we all know...

CHORUS (Both guitars)(x2)
e|-----0-0-0-0-0-0---0-0-0-0-0-0---0--0--0--0--|
B|-----0-0-0-0-0-0---0-0-0-0-0-0---0--0--0--0--|
G|-----6-6-6-6-6-6---6-6-6-6-6-6---4--4--4--4--|
D|-----4-4-4-4-4-4---6-6-6-6-6-6---4--4--4--4--|
A|-----6-6-6-6-6-6---4-4-4-4-4-4---0--0--0--0--|
E|---------------------------------------------|
     Tonight     we own        the town
     Tonight     could be      our night
e|-----0-0-0-0-0-0---0-0-0-0-0-0---0--0--0--0--|
B|-----0-0-0-0-0-0---0-0-0-0-0-0---0--0--0--0--|
G|-----6-6-6-6-6-6---6-6-6-6-6-6---6--6--6--6--|
D|-----4-4-4-4-4-4---4-4-4-4-4-4---6--6--6--6--|
A|-----x-x-x-x-x-x---0-0-0-0-0-0---4--4--4--4--|
E|-----6-6-6-6-6-6---0-0-0-0-0-0---------------|
     We'll show this city         Just what we're made of
     We'll show these people      Just what we're made of


BRIDGE (Guitar 1)(x2 instrumental, x6 w/ vocals)
e|--0--0---0--0--0----0--0--0--0--------------------------------------------------------|
B|--0--0---0--0--0----0--0--0--0--------------------------------------------------------|
G|--6--6---6--6--6----6--6--6--6--------------------------------------------------------|
D|--4--4---4--4--4----6--6--6--6--------------------------------------------------------|
A|--x--x---0--0--0----4--4--4--4--------------------------------------------------------|
E|--6--6--------------------------------------------------------------------------------|
     Here's to good company
     Here's to the friends that last forever
     (This is the night we take back for good...)
     (Feel the words you're singing out...)
e|--0--0--0--0--0-----0---0---0---0---|
B|--0--0--0--0--0-----0---0---0---0---|
G|--11-11-11-11-11----10--10--10--10--|
D|--8--8--9--9--9-----11--11--11--11--|
A|--0--0--0--0--0-----11--11--11--11--|
E|--------------------9---9---9---9---|
    Won't you drink to that
    Oh yeah I'll drink to that
    This is our town, this is our town
    This is our town, this is our town

BRIDGE (Guitar 2)
e|--0--0--0--0--0----0---0---0--0--0---|
B|--x--x--x--x--x----x---x---x--x--x---|
G|--11-11-11-11-10---10--11--11-11-11--|
D|--x--x--x--x--x----x---x---x--x--x---|
A|--9--9--9--9--8----8---9---9--9--9---|
E|-------------------------------------|
    Here's to good company
    Here's to the friends that last forever

e|--0---0---0---0---0------0---0---0----0---0---|
B|--x---x---x---x---x------x---x---x----x---x---|
G|--15--15--15--15--11-----10--11--13---11--10--|
D|--x---x---x---x---x------x---x---x----x---x---|
A|--13--13--13--13--9------8---9---11---9---8---|
E|----------------------------------------------|
    Won't you drink to that
    Oh yeah I'll drink to that

Repeat CHORUS (Once quiet, once loud)
OUTRO (same as INTRO)


End on this chord, let ring out
e|----0---------|
B|----0---------|
G|----11--------|
D|----11--------|
A|----9---------|
E|----0---------|

LYRICS:

[V]
There's a party on tonight
But it ain't as cool as us, no
Cause we've got our game faces on
All the time
You know we mean business
And we won't stop 'til we get it

[Pre]
I hope you know you mean the most
With our luck I think we all know

[Chorus]
Tonight we own the town
We'll show this city just what we're made of
Tonight could be our night
Let's show these people just what we're made of

[V]
She's the one across the room
With the walnut brown hair
You've been staring down for hours
You look there, she looks back
You feel the butterflies attack
Don't we all feel invincible?

[Chorus]

[Bridge][x2]
Here's to good company
Won't you drink to that?
This one's for the friends that last forever
Oh yeah, I'll drink to that
(This is the night we take back for good
Hold your drinks in the air like you know you should
This is our town, this is our town)
(Feel the words you're singing out
Shout out loud when I say
This is our town, this is our town)
[Chorus][x2]

| /  slide up
| \  slide down
| h  hammer-on
| p  pull-off
| ~  vibrato
| +  harmonic
| x  Mute note
===============================================================================
Related for Chase This City - Own The Town tab
Advertisement will be closed in 10 seconds