Song name
# A B C D E F G H I J K L M N O P Q R S T U V W X Y Z

Misc Unsigned Bands - Purplepuke - At Least I Have Someone To Lose tab


intro:

e|-55-55-55-55-|
B|-77-77-77-77-|
G|-66-66-66-66-|
D|-------------|
A|-------------|(x4)
D|-------------|

Verse:

e|-55-55-55-55-------------------|
B|-77-77-77-77-55-55-55-55-------|
G|-66-66-66-66-66-66-66-66-------|
D|-------------66-66-66-66-------|
A|-------------------------------|(x2)
D|-------------------------------|


Chorus: 

e|---------------------------------------|
B|---------------------------------------|
G|---------------------------------------|
D|-77777777-22222222-44444444-77777777---|
A|-55555555-22222222-44444444-77777777---|
D|----------22222222-44444444-77777777---|

e|---------------------------------------|
B|---------------------------------------|
G|---------------------------------------|
D|-77777777-22222222-55555555-44444444---|
A|-55555555-22222222-55555555-44444444---|
D|----------22222222-55555555-44444444---|

e|------|
B|------|
G|------|
D|-0000-|
A|-0000-|(x2, palm muted)
D|-0000-|

verse:

e|-55-55-55-55-------------------|
B|-77-77-77-77-55-55-55-55-------|
G|-66-66-66-66-66-66-66-66-------|
D|-------------66-66-66-66-------|
A|-------------------------------|(x2)
D|-------------------------------|


Chorus: 

e|---------------------------------------|
B|---------------------------------------|
G|---------------------------------------|
D|-77777777-22222222-44444444-77777777---|
A|-55555555-22222222-44444444-77777777---|
D|----------22222222-44444444-77777777---|

e|---------------------------------------|
B|---------------------------------------|
G|---------------------------------------|
D|-77777777-22222222-55555555-44444444---|
A|-55555555-22222222-55555555-44444444---|
D|----------22222222-55555555-44444444---|

e|------|
B|------|
G|------|
D|-0000-|
A|-0000-|(x2, palm muted)
D|-0000-|

Bridge:

e|------------------------------------|
B|------------------------------------|
G|------------------------------------|
D|-4444-4444-2~-4444-4444/7~----------|
A|-4444-4444-2~-4444-4444/7~----------|(x2, palm muted)
D|-4444-4444-2~-4444-4444/7~----------|

e|------------------------------------|
B|------------------------------------|
G|------------------------------------|
D|-2222-2222-0~-2222-2222/5-0~--------|
A|-2222-2222-0~-2222-2222/5-0~--------|(palm muted)
D|-2222-2222-0~-2222-2222/5-0~--------|

e|-------------------------------------------|
B|-------------------------------------------|
G|-------------------------------------------|
D|-2-4-5-7-5-4-2-4-5-7-5-4-2-4-5-7-5-4-2~~~~-|
A|-2-4-5-7-5-4-2-4-5-7-5-4-2-4-5-7-5-4-2~~~~-|
D|-2-4-5-7-5-4-2-4-5-7-5-4-2-4-5-7-5-4-2~~~~-|



Chorus: 

e|---------------------------------------|
B|---------------------------------------|
G|---------------------------------------|
D|-77777777-22222222-44444444-77777777---|
A|-55555555-22222222-44444444-77777777---|
D|----------22222222-44444444-77777777---|

e|---------------------------------------|
B|---------------------------------------|
G|---------------------------------------|
D|-77777777-22222222-55555555-44444444---|
A|-55555555-22222222-55555555-44444444---|
D|----------22222222-55555555-44444444---|

e|------|
B|------|
G|------|
D|-0000-|
A|-0000-|(x2, palm muted;
D|-0000-|let last chord ring going into the outro)

outro:

e|-55-55-55-55-|
B|-77-77-77-77-|
G|-66-66-66-66-|
D|-------------|
A|-------------|(x4 
D|-------------|fourth time let the last one ring)






















Tap to rate this tab
# A B C D E F G H I J K L M N O P Q R S T U V W X Y Z