Song name
# A B C D E F G H I J K L M N O P Q R S T U V W X Y Z

Misc Unsigned Bands - Mediocre - Acid Penguin tab

THIS SONG IS REALLY EASY! IF U HAVE ANY QUESTIONS EMAIL ME AT ETHAN.442@HOTMAIL.COM AND 
GET BACK TO YOU. LEAVE YOUR EMAIL ADDRESS

                              STANDARD TUNING

E-X--X----X--X----X--X----X--X-----------------------------|      But at the 4th one do this after
B-5--5----4--4----2--2----4--4-----------------------------|   X4    the two's  (the A's)
G-4--4----5--5----2--2----4--4-----------------------------|
D-2--2----6--6----2--2----4--4-----        B------4--------|
A-X--X----X--X----X--X----X--X-----        G--4-----4---4--|
E-X--X----X--X----X--X----X--X-----        D----4-----4----|

E--X--X-------------------X--X------------------------|
B--2--2---------2---------4--4---------4--------------|      X2 Then go Back
G--2--2-----2-----2---2---4--4-----4-----4---4--------|      to the beginning
D--2--2---2---2-----2-----4--4---4---4-----4----------|
A--X--X-------------------X--X------------------------|
E--X--X-------------------X--X------------------------|


                  I DON'T KNOW THE SOLO BUT I WILL PUT IT UP LATER
Tap to rate this tab
# A B C D E F G H I J K L M N O P Q R S T U V W X Y Z