Song name
# A B C D E F G H I J K L M N O P Q R S T U V W X Y Z

Misc Unsigned Bands - Our Dying Dreams - This Disaster tab

"This Disaster" - Our Dying Dreams
www.myspace.com/ourdyingdreams

Tabbed By: tdwp27
E-mail: cdubbaop@yahoo.com

Tuning: Drop D

Intro
Guitar 1
|---------------------------------------------------|
|---------------------------------------------------|
|---------------------------------------------------|
|-------------------------------------------------0~|
|5----4----8----7----5h7h8p7-5----4-----8888-7777-0~|
|-0000-0000-0000-0000---------0000-0000-8888-7777-0~|
  .... .... .... ....         .... ....
Intro
Guitar 2
|---------------------------------------------------------|
|---------------------------------------------------------|
|---------------------------------------------------------|
|-------------------------------------------------------0~|
|8----7----11----10-----8h10h11p10-8----7-----8888-7777-0~|
|-0000-0000--0000--0000-------------0000-0000-8888-7777-0~|
  .... ....  ....  ....             .... ....   
verse
Both Guitars
|------------------------------------------------------------|
|------------------------------------------------------------|
|------------------------------------------------------------|
|----------------------------------------------------2-------|
|----8-7-3----3h5-----8-7-3-----3h5-3h5-3h5-3333--3-5-3p0h3h5|
|0000-0-0-0000----0000-0-0-0000-------------3333-3-3---------|
 .... . . ....    .... . . ....             .... . .

Intro
(Then some open D's)
Verse
Intro

Bridge
Guitar 1
|-------------------------------------------------------------------|
|-------------------------------------------------------------------|
|-------------------------------------------------------------------|
|-------------------------------------------------------------------|
|---0-0-00~-000000-0-00-00~-0-0-00~-8p5h8p5h8p5h8p5-7p4h7p4h7p4h7p4-|
|3+-0-0-00~-000000-0-00-00~-0-0-00~---------------------------------|

Guitar 2(after 4x)
|----------------------------------|
|--------5---------5-------------5~|
|--------8---------8-------------8~|
|----------------------------------|
|3+-0-0-0---000000---00-00--0-0-0--|
|---0-0-0---000000---00-00--0-0-0--|

Both Guitars
|---------------------------------------------------|
|---------------------------------------------------|
|---------------------------------------------------|
|---------------------------------------------------|
|0-0-0-000000-0-0-0-000000-0-0-0-000000-0-0-0-000000|
|0-0-0-000000-0-0-0-000000-0-0-0-000000-0-0-0-000000|
 . . . ...... . . . ...... . . . ...... . . . ......

Bridge II
|------------------------------------------|
|------------------------------------------|
|------------------------------------------|
|0----------0---------8----------7---------|
|0----------0---------8----------7---------|
|0-00000000-0-0000000-8-88888888-7-77777777|

Verse

Bridge II(Cont.)      
|--------------|
|--------------|
|--------------|
|0---0---0---0~|
|0---0---0---0~|
|0---0---0---0~|       
 
VVV[this is how it should sound but doesnt on the recording]VVV
|---------------------------------|
|---------------------------------|
|---------------------------------|
|---------------------------------|
|--------12-10-8--------12-10-8h10|
|00000000--0--0-00000000--0--0----|

|------------------------------------------------------------------------|
|------------------------------------------------------------------------|
|------------------------------------------------------------------------|
|------------------------------------------------------------------------|
|--------777788881010101010108888--------77778888121212121010101088888888|
|88888888------------------------77777777--------------------------------|

Outro
Both Guitars
|---------------------------------------------------------|
|---------------------------------------------------------|2x then
|---------------------------------------------------------| 2x slowed down
|---------------------------------------------------------| end with
|0-0-000000-0-0-000000-0-0-000000-0h5h8-0h4h7-0h7h10-0h5h8| open D let ring.
|0-0-000000-0-0-000000-0-0-000000-------------------------|
   . ......   . ......   . ......

[.]-means palm mute
{+]-means pinch harmonic
[~]-means let ring
Tap to rate this tab
# A B C D E F G H I J K L M N O P Q R S T U V W X Y Z