Song name
# A B C D E F G H I J K L M N O P Q R S T U V W X Y Z

Misc Unsigned Bands - Bx2 - 472 tab

*=PALM MUTE
~~=LET RING

intro

e ----------------------------------------|
B ----------------------------------------|
G ----------------------------------------|
D ----------------------------------------|
A -**6-**9-4-6~~--------------------------|
E -**4-**7-2-4~~--------------------------|   x6

bridge
e ------------------------------------------|
B ------------------------------------------|
G ------------------------------------------|
D ------------------------------------------|
A ------------------------------------------|
E --444444444-------------------------------|
chorus
e ------------------------------------------|
B ------------------------------------------|
G ------------------------------------------|
D ------------------------------------------|
A --66-6666-69999-44------------------------|
E --44 4444-87777-22------------------------| x4


play again x2
Tap to rate this tab
# A B C D E F G H I J K L M N O P Q R S T U V W X Y Z