Song name
# A B C D E F G H I J K L M N O P Q R S T U V W X Y Z

Misc Unsigned Bands - Purplepuke - Resounding Silence tab

I think this song sounds better on an acoustic guitar, for the most part.

intro:

e|-000000-000000-000000-000000------|
B|-111111-111111-111111-333333------|
G|-000000-000000-000000-000000------|
D|-222222-333333-222222-444444------|
A|-333333-333333-333333-555555------|(x3, third time hold last chord for four beats, until 
E|----------------------------------|the verse)

Verse:

e|---------------------------------------------------3-----3-----3---|
B|---1-----1-----1---1-----1-----1---1-----1-----1-----3-----3-------|
G|-----2-----2---------0-----0---------2-----2-----------0-----0-----|
D|-------3-----3---------2-----2---------2-----2---------------------|
A|-----------------3---------------0---------------------------------|
E|-1-----------------------------------------------3-----------------|

e|-111111-000000-000000---3-----3-----3--x-|
B|-111111-111111-111111-----3-----3------x-|
G|-222222-000000-222222-------0-----0----x-|
D|-333333-222222-222222------------------x-|
A|-333333-333333-000000------------------x-|
E|-111111---------------3----------------x-|

Chorus:

e|-000000-000000-000000-000000------|
B|-111111-111111-111111-333333------|
G|-000000-000000-000000-000000------|
D|-222222-333333-222222-444444------|
A|-333333-333333-333333-555555------|(x3, third time hold last chord for four beats, until 
E|----------------------------------|the verse)


Verse:

e|---------------------------------------------------3-----3-----3---|
B|---1-----1-----1---1-----1-----1---1-----1-----1-----3-----3-------|
G|-----2-----2---------0-----0---------2-----2-----------0-----0-----|
D|-------3-----3---------2-----2---------2-----2---------------------|
A|-----------------3---------------0---------------------------------|
E|-1-----------------------------------------------3-----------------|

e|-111111-000000-000000---3-----3-----3--x-|
B|-111111-111111-111111-----3-----3------x-|
G|-222222-000000-222222-------0-----0----x-|
D|-333333-222222-222222------------------x-|
A|-333333-333333-000000------------------x-|
E|-111111---------------3----------------x-|


Chorus:

e|-000000-000000-000000-000000---|
B|-111111-111111-111111-333333---|
G|-000000-000000-000000-000000---|
D|-222222-333333-222222-444444---|
A|-333333-333333-333333-555555---|x3
E|-------------------------------|

e|-x--|
B|-x--|
G|-x--|
D|-x--|
A|-x--|
E|-x--|

Bridge:

e|-------------------|
B|-------------------|
G|---0-----0-----0---|
D|-----4-----4-------|
A|-------5-----5-----|(x8) 
E|-0-----------------|

e|----|
B|----|
G|----|
D|----|
A|----|(hold for 8 beats)
E|-0--|

Chorus:

e|-000000-000000-000000-000000---|
B|-111111-111111-111111-333333---|
G|-000000-000000-000000-000000---|
D|-222222-333333-222222-444444---|
A|-333333-333333-333333-555555---|x2
E|-------------------------------|

e|---------0----------------0----------|
B|-------1---1------------1---1--------|
G|-----0-------0-------0--------0------|
D|---2-----------2---2------------2----|
A|-3---------------3----------------3--|
E|-------------------------------------|

e|---------0----------------0----------|
B|-------1---1------------1---1--------|
G|-----0-------0-------0--------0------|
D|---3-----------3---3------------3----|
A|-3---------------3----------------3--|
E|-------------------------------------|

e|---------0----------------0----------|
B|-------1---1------------1---1--------|
G|-----0-------0-------0--------0------|
D|---2-----------2---2------------2----|
A|-3---------------3----------------3--|
E|-------------------------------------|

e|-0-----|
B|-1/3---|
G|-0-----|
D|-2/4---|
A|-3/5---|(let the open strings ring during the slide)
E|-------|

e|---------0----------------0----------|
B|-------3---3------------3---3--------|
G|-----0-------0-------0--------0------|
D|---4-----------4---4------------4----|
A|-5---------------5----------------5--|(x3, gradually slow down and fade)
E|-------------------------------------|


END!!!!!!!
Tap to rate this tab
# A B C D E F G H I J K L M N O P Q R S T U V W X Y Z