Song name
# A B C D E F G H I J K L M N O P Q R S T U V W X Y Z

Misc Unsigned Bands - Ramon Jacinto - Muli tab

Tuning: Standard

INTRO:


e ----------------------------------------------------------------|
B --------8--10--11--10--8--10--6---------------------------------|
G ------7-------------------------5-------------------------------|
D ----------------------------------------------------------------|
A ----------------------------------------------------------------|
E ----------------------------------------------------------------|

e ----------------------------------------------------------------|
B --------8--10--11--10--8--10------------------------------------|
G ------7---------------------------------------------------------|
D ----------------------------------------------------------------|
A ----------------------------------------------------------------|
E ----------------------------------------------------------------|


Di ko pa tapos yung solo. Tatapusin ko po muna bago ko i-post dito. This tab is 95% 
Paki-rate na lang po. Salamat. LONG LIVE PINOY ROCK!

E-add: guitar_player0813@yahoo.com
Contact No.: 09158669366
Tap to rate this tab
# A B C D E F G H I J K L M N O P Q R S T U V W X Y Z