Song name
# A B C D E F G H I J K L M N O P Q R S T U V W X Y Z

Misc Unsigned Bands - Thirteenth Hour - Goin Down tab

   Intro                                 x4
e------------------------------------------------------------------------------|
-------------------------------------------------------------------------------|
-------------------------------------------------------------------------------|
--------------2-------------3--------------------------------------------------|
---------2-3-----------2-3-----------------------------------------------------|
E----0------------0------------------------------------------------------------|
        Chorus 1                              x2
e------------------------------------------------------------------------------|
-------------------------------------------------------------------------------|
-------------------------------------------------------------------------------|
-------------------3-4------------------------------3-4------------------------|
------------------------3-4-0------------------3-4-----------------------------|
E---0-0-0-0-3-4-5---------------0-0-0-0-3-4-5----------------------------------|
       Middle 1                             x4
e------------------------------------------------------------------------------|
-------------------------------------------------------------------------------|
-------------------------------------------------------------------------------|
-------------------------------------------------------------------------------|
-------------------------------------------------------------------------------|
E----0-0-0-0-0-0-0-0--3-3-3-3-3-3-3-3--5-5-5-5-5-5-5-5-------------------------|

Chorus 1                        x2

Intro                            x4
Tap to rate this tab
 
# A B C D E F G H I J K L M N O P Q R S T U V W X Y Z