Song name
# A B C D E F G H I J K L M N O P Q R S T U V W X Y Z

Misc Unsigned Bands - Mia Carruthers - Breather You In tab

Breathe You In by Mia Carruthers
Standard Tuning: E  A  D  G  B  E
Capo 4

Intro
|---3----3-------------|----------------------|---3----3-------------|
|---3----3----2----2---|---1----0----4----4---|---3----3----2----2---|
|---0----0----0----0---|---0----0----5----5---|---0----0----0----0---|
|---0----0----2----2---|---2----2----5----5---|---0----0----2----2---|
|-----------0----0-----|-3----3----3----3-----|-----------0----0-----|
|-3----3---------------|----------------------|-3----3---------------|

|----------------------|
|---1----0----4----4---|
|---0----0----5----5---|
|---2----2----5----5---|
|-3----3----3----3-----|
|----------------------|

Verse
|---3----3-------------|----------------------|---3----3-------------|
|---3----3----2----2---|---1----0----4----4---|---3----3----2----2---|
|---0----0----0----0---|---0----0----5----5---|---0----0----0----0---|
|---0----0----2----2---|---2----2----5----5---|---0----0----2----2---|
|-----------0----0-----|-3----3----3----3-----|-----------0----0-----|
|-3----3---------------|----------------------|-3----3---------------|
i am undone, a little rough around the edges...
|----------------------|
|---1----0----4----4---|
|---0----0----5----5---|
|---2----2----5----5---|
|-3----3----3----3-----|
|----------------------|
...and the hour glass we race

|---3----3-------------|----------------------|---3----3-------------|
|---3----3----2----2---|---1----0----4----4---|---3----3----2----2---|
|---0----0----0----0---|---0----0----5----5---|---0----0----0----0---|
|---0----0----2----2---|---2----2----5----5---|---0----0----2----2---|
|-----------0----0-----|-3----3----3----3-----|-----------0----0-----|
|-3----3---------------|----------------------|-3----3---------------|

|----------------------|
|---1----0----4----4---|
|---0----0----5----5---|
|---2----2----5----5---|
|-3----3----3----3-----|
|----------------------|
the one i tried to chase... mm.

|---3----3-------------|----------------------|---3----3-------------|
|---3----3----2----2---|---1----0----4----4---|---3----3----2----2---|
|---0----0----0----0---|---0----0----5----5---|---0----0----0----0---|
|---0----0----2----2---|---2----2----5----5---|---0----0----2----2---|
|-----------0----0-----|-3----3----3----3-----|-----------0----0-----|
|-3----3---------------|----------------------|-3----3---------------|
we talk to much, a million words...
|----------------------|---3----3-------------|----------------------|
|---1----0----4----4---|---3----3----2----2---|---1----0----4----4---|
|---0----0----5----5---|---0----0----0----0---|---0----0----5----5---|
|---2----2----5----5---|---0----0----2----2---|---2----2----5----5---|
|-3----3----3----3-----|-----------0----0-----|-3----3----3----3-----|
|----------------------|-3----3---------------|----------------------|
...It's never how we feel...     ...and they say time is how we...
|---3----3-------------|----------------------|----------------------|
|---3----3----2----2---|---1----0----4----4---|---4----4-------------|
|---0----0----0----0---|---0----0----5----5---|---5----5-------------|
|---0----0----2----2---|---2----2----5----5---|---5----5-------------|
|-----------0----0-----|-3----3----3----3-----|-3----3---------------|
|-3----3---------------|----------------------|----------------------|
...heal...mm.

Chorus
|----------------------|----------------------|----------------------|
|---8----8----8----8---|---7----7----7----7---|----------------------|
|---9----9----9----9---|---7----7----7----7---|---6----6----6----6---|
|---9----9----9----9---|---7----7----7----7---|---7----7----7----7---|
|------7---------7-----|-5----5----5----5-----|---7----7----7----7---|
|-0---------0----------|----------------------|-5----5----5----5-----|
I can't see you, I can't breathe you in, no...
|----------------------|
|----------------------|
|---6----6----6----6---|
|---7----7----7----7---|
|---7----7----7----7---|
|-5----5----5----5-----|

|----------------------|----------------------|----------------------|
|---8----8----8----8---|---7----7----7----7---|----------------------|
|---9----9----9----9---|---7----7----7----7---|---6----6----6----6---|
|---9----9----9----9---|---7----7----7----7---|---7----7----7----7---|
|------7---------7-----|-5----5----5----5-----|---7----7----7----7---|
|-0---------0----------|----------------------|-5----5----5----5-----|
If I do I'd never leave again....
|----------------------|------3---------------|
|----------------------|------4---------------|
|---6----6----6----6---|------5---------------|
|---7----7----7----7---|------5---------------|
|---7----7----7----7---|------3---------------|
|-5----5----5----5-----|------3---------------|
                              oh, again....

Turn into 2nd verse
|---3----3-------------|----------------------|---3----3-------------|
|---3----3----2----2---|---1----0----4----4---|---3----3----2----2---|
|---0----0----0----0---|---0----0----5----5---|---0----0----0----0---|
|---0----0----2----2---|---2----2----5----5---|---0----0----2----2---|
|-----------0----0-----|-3----3----3----3-----|-----------0----0-----|
|-3----3---------------|----------------------|-3----3---------------|

|----------------------|
|---1----0----4----4---|
|---0----0----5----5---|
|---2----2----5----5---|
|-3----3----3----3-----|
|----------------------|

Verse
|---3----3-------------|----------------------|---3----3-------------|
|---3----3----2----2---|---1----0----4----4---|---3----3----2----2---|
|---0----0----0----0---|---0----0----5----5---|---0----0----0----0---|
|---0----0----2----2---|---2----2----5----5---|---0----0----2----2---|
|-----------0----0-----|-3----3----3----3-----|-----------0----0-----|
|-3----3---------------|----------------------|-3----3---------------|
I love the concrete it's my, city grass beneath my feet...
|----------------------|
|---1----0----4----4---|
|---0----0----5----5---|
|---2----2----5----5---|
|-3----3----3----3-----|
|----------------------|
...my senior

|---3----3-------------|----------------------|---3----3-------------|
|---3----3----2----2---|---1----0----4----4---|---3----3----2----2---|
|---0----0----0----0---|---0----0----5----5---|---0----0----0----0---|
|---0----0----2----2---|---2----2----5----5---|---0----0----2----2---|
|-----------0----0-----|-3----3----3----3-----|-----------0----0-----|
|-3----3---------------|----------------------|-3----3---------------|
It's just those little things that make me hate...
|----------------------|
|---1----0----4----4---|
|---0----0----5----5---|
|---2----2----5----5---|
|-3----3----3----3-----|
|----------------------|
...And it all comes back to...

Chorus
|----------------------|----------------------|----------------------|
|---8----8----8----8---|---7----7----7----7---|----------------------|
|---9----9----9----9---|---7----7----7----7---|---6----6----6----6---|
|---9----9----9----9---|---7----7----7----7---|---7----7----7----7---|
|------7---------7-----|-5----5----5----5-----|---7----7----7----7---|
|-0---------0----------|----------------------|-5----5----5----5-----|
I can't see you, I can't breathe you in
|----------------------|
|----------------------|
|---6----6----6----6---|
|---7----7----7----7---|
|---7----7----7----7---|
|-5----5----5----5-----|

|----------------------|----------------------|----------------------|
|---8----8----8----8---|---7----7----7----7---|----------------------|
|---9----9----9----9---|---7----7----7----7---|---6----6----6----6---|
|---9----9----9----9---|---7----7----7----7---|---7----7----7----7---|
|------7---------7-----|-5----5----5----5-----|---7----7----7----7---|
|-0---------0----------|----------------------|-5----5----5----5-----|
If I do I'd never leave again....
|----------------------|
|----------------------|
|---6----6----6----6---|
|---7----7----7----7---|
|---7----7----7----7---|
|-5----5----5----5-----|

|----------------------|----------------------|----------------------|
|---8----8----8----8---|---7----7----7----7---|----------------------|
|---9----9----9----9---|---7----7----7----7---|---6----6----6----6---|
|---9----9----9----9---|---7----7----7----7---|---7----7----7----7---|
|------7---------7-----|-5----5----5----5-----|---7----7----7----7---|
|-0---------0----------|----------------------|-5----5----5----5-----|
I can't see you, I can't breathe you in...
|----------------------|
|----------------------|
|---6----6----6----6---|
|---7----7----7----7---|
|---7----7----7----7---|
|-5----5----5----5-----|

|----------------------|----------------------|----------------------|
|---8----8----8----8---|---7----7----7----7---|----------------------|
|---9----9----9----9---|---7----7----7----7---|------6---------------|
|---9----9----9----9---|---7----7----7----7---|------7---------------|
|------7---------7-----|-5----5----5----5-----|------7---------------|
|-0---------0----------|----------------------|----5-----------------|
If I do I'd never leave again...
|------3---------------|
|------4---------------|
|------5---------------|
|------5---------------|
|------3---------------|
|------3---------------|
 oh, again....

Outro
|---3----3-------------|----------------------|---3----3-------------|
|---3----3----2----2---|---1----0----4----4---|---3----3----2----2---|
|---0----0----0----0---|---0----0----5----5---|---0----0----0----0---|
|---0----0----2----2---|---2----2----5----5---|---0----0----2----2---|
|-----------0----0-----|-3----3----3----3-----|-----------0----0-----|
|-3----3---------------|----------------------|-3----3---------------|
           oh but I don't no no no....
|----------------------|-------3--------------|
|---1----0----4----4---|-------2--------------|
|---0----0----5----5---|-------0--------------|
|---2----2----5----5---|-------0--------------|
|-3----3----3----3-----|-------2--------------|
|----------------------|-------3--------------|
 if I breath you..............in.
In the end, it should look something like this:
Intro x2
Verse x8
Chorus x2
Turn x1
Verse x4
Chorus x4
Outro x1

sorry, most of it isn't shown very well, its my first tab, just try and listen to the 
and get it from there.
Tap to rate this tab
# A B C D E F G H I J K L M N O P Q R S T U V W X Y Z