Song name
# A B C D E F G H I J K L M N O P Q R S T U V W X Y Z

Misc Unsigned Bands - Thebandwithnoname - Found And Lost tab

-----------------------------------------------------------------------------
			     Found and Lost (solo) - Thebandwithnoname
-----------------------------------------------------------------------------

Tabbed by: BobaloC
Email: -----

 [2:44]
e|--------------------------------------------------------------------------|
B|--------------------------------------------------------------------------|
G|------------------------------------------------14-14-14-14-14-14-14-14-12|
D|-11-11-11-11-11-11-11-11-12-12-12-12-12-12-12-12--------------------------|
A|--------------------------------------------------------------------------|
E|--------------------------------------------------------------------------|

e|--------------------------------------------------------------------------|
B|----------------------17-17-17-17-17-17-17-17-----------------------------|
G|-12-12-12-12-12-12-12-------------------------14-14-14-14-14-14-14-14-----|
D|---------------------------------------------------------------------12-12|
A|--------------------------------------------------------------------------|
E|--------------------------------------------------------------------------|

e|--------------------------------------------------------------------------|
B|------------------15-15-15-15-15-15-15-15---------------------------------|
G|--------------------------------------------------------------------------|
D|-12-12-12-12-12-12--------------------------------------------------------|
A|--------------------------------------------------------------------------|
E|--------------------------------------------------------------------------|


And thats it!!!!
Tap to rate this tab
# A B C D E F G H I J K L M N O P Q R S T U V W X Y Z