Song name
# A B C D E F G H I J K L M N O P Q R S T U V W X Y Z

Misc Unsigned Bands - Fishpaste - Sweet Doomsday tab

                          |                          |  
--0--0-0-0--0-0--0-0--0--0|--0-0-0--0--0-0--0-0--0--0|
--4--4-4-4--4-4--4-4--4--4|--5-5-5--5--5-5--5-5--5--5|
--4--4-4-4--4-4--4-4--4--4|--5-5-5--5--5-5--5-5--5--5|
--0--0-0-0--0-0--0-0--0--0|--0-0-0--0--0-0--0-0--0--0|
--0--0-0-0--0-0--0-0--0--0|--0-0-0--0--0-0--0-0--0--0|
--0--0-0-0--0-0--0-0--0--0|--0-0-0--0--0-0--0-0--0--0|
                          |                          |


                          |                          |
--0-0-0--0--0-0--0-0--0--0|--0-0-0--0--0-0--0-0--0--0|
--4-4-4--4--4-4--4-4--4--4|--5-5-5--5--5-5--5-5--5--5|
--4-4-4--4--4-4--4-4--4--4|--5-5-5--5--5-5--5-5--5--5|
--0-0-0--0--0-0--0-0--0--0|--0-0-0--0--0-0--0-0--0--0|
--0-0-0--0--0-0--0-0--0--0|--0-0-0--0--0-0--0-0--0--0|
--0-0-0--0--0-0--0-0--0--0|--0-0-0--0--0-0--0-0--0--0|
                          |                          |


                          |                          |
--0-0-0--0--0-0--0-0--0--0|--0-0-0--0--0-0--0-0--0--0|
--4-4-4--4--4-4--4-4--4--4|--5-5-5--5--5-5--5-5--5--5|
--4-4-4--4--4-4--4-4--4--4|--5-5-5--5--5-5--5-5--5--5|
--0-0-0--0--0-0--0-0--0--0|--0-0-0--0--0-0--0-0--0--0|
--0-0-0--0--0-0--0-0--0--0|--0-0-0--0--0-0--0-0--0--0|
--0-0-0--0--0-0--0-0--0--0|--0-0-0--0--0-0--0-0--0--0|
                          |                          |


                          |                          |
--0-0-0--0--0-0--0-0--0--0|--0-0-0--0--0-0--0-0--0--0|
--4-4-4--4--4-4--4-4--4--4|--5-5-5--5--5-5--5-5--5--5|
--4-4-4--4--4-4--4-4--4--4|--5-5-5--5--5-5--5-5--5--5|
--0-0-0--0--0-0--0-0--0--0|--0-0-0--0--0-0--0-0--0--0|
--0-0-0--0--0-0--0-0--0--0|--0-0-0--0--0-0--0-0--0--0|
--0-0-0--0--0-0--0-0--0--0|--0-0-0--0--0-0--0-0--0--0|
                          |                          |


                           |                    |
--0-0--0----0-0--0--0---0-0|--0----0-0--0--0-0-0|
--4-4--5----4-4--5--4---4-4|--5----4-4--5--4-4-4|
--4-4--5----4-4--5--4---4-4|--5----4-4--5--4-4-4|
--0-0--0----0-0--0--0---0-0|--0----0-0--0--0-0-0|
---------------------------|--------------------|
---------------------------|--------------------|
                           |                    |
Tap to rate this tab
# A B C D E F G H I J K L M N O P Q R S T U V W X Y Z