Song name
# A B C D E F G H I J K L M N O P Q R S T U V W X Y Z

Misc Unsigned Bands - Dicks In The Sun - Pig Pussy tab

Intro
e-------------5--7---7-------9-----9-3-------5-----|
B-----------3------5-----------7--------3------5---|
G---------4------------6---------8----4------6-----|
D-------5----------------7-9--------------5------7-|
A-----5--------------------------------------------|
E---3----------------------------------------------|

verse
e-------5-7---7-------9-----9-3-------5-----|
B---3-------5-----------7--------3------5---|
G-----4---------6---------8----4------6-----|
D-5---------------7-9--------------5------7-|
A-------------------------------------------|
E-------------------------------------------|

chorus
e----9---------5-------7---------|
B--------7-3---------------5-----|
G------8-----4-----------6-------|
D--9---------------5---------7---|
A----------------5---------------|
E--------------------3-----------|

verse
e-------5-7---7-------9-----9-3-------5-----|
B---3-------5-----------7--------3------5---|
G-----4---------6---------8----4------6-----|
D-5---------------7-9--------------5------7-|
A-------------------------------------------|
E-------------------------------------------|

chorus
e----9---------5-------7---------|
B--------7-3---------------5-----|
G------8-----4-----------6-------|
D--9---------------5---------7---|
A----------------5---------------|
E--------------------3-----------|

verse
e-------5-7---7-------9-----9-3-------5-----|
B---3-------5-----------7--------3------5---|
G-----4---------6---------8----4------6-----|
D-5---------------7-9--------------5------7-|
A-------------------------------------------|
E-------------------------------------------|

chorus
e----9---------5-------7---------|
B--------7-3---------------5-----|
G------8-----4-----------6-------|
D--9---------------5---------7---|
A----------------5---------------|
E--------------------3-----------|

verse
e-------5-7---7-------9-----9-3-------5-----|
B---3-------5-----------7--------3------5---|
G-----4---------6---------8----4------6-----|
D-5---------------7-9--------------5------7-|
A-------------------------------------------|
E-------------------------------------------|

chorus
e----9---------5-------7---------|
B--------7-3---------------5-----|
G------8-----4-----------6-------|
D--9---------------5---------7---|
A----------------5---------------|
E--------------------3-----------|
Tap to rate this tab
 
# A B C D E F G H I J K L M N O P Q R S T U V W X Y Z