Song name
# A B C D E F G H I J K L M N O P Q R S T U V W X Y Z

Misc Unsigned Bands - The Bloody Sheep - Star Spangled Banner tab

This is my version of the Star Spangled Banner! If you have any questions, 
comments, gripes, or complaints...Just email me at jonny_13_boy@hotmail.com
Please enjoy

~ = hold and press hard
/ = slide down to
\ = slide up to
^ bend up

e]--------------------------15^14/12~~~--------------------15^~~14-12------|
b]--12----------12-17~~~~~--------------------12~~~~-12-12------------16~~~|
g]-----13----13-------------------------13-15------------------------------|
d]--------14---------------------------------------------------------------|
a]-------------------------------------------------------------------------|
E]-------------------------------------------------------------------------|

e]----------------------------------------------15^14/12~~~----------------|
b]-14-16-17-17--12-----12----------12---17~~~~-------------------12~~~~-12-|
g]-----------------13----13----13-------------------------13-15------------|
d]--------------------14---14----------------------------------------------|
a]-------------------------------------------------------------------------|
E]-------------------------------------------------------------------------|
                                               {strum wile bent up}   
e]-----15^~~14-12---------------------------15^{1515}-17-19~~19~~17-16-----|
b]12--------------16~~14-16-17-17-12------------------------------------19-|
g]-----------------------------------13------------------------------------|
d]--------------------------------------14---------------------------------|
a]-------------------------------------------------------------------------|
E]-------------------------------------------------------------------------|

e]-16-17~~17~~~~17-16------------------------------------------------------|
b]--------------------19-17--16~~14-16-17----------------------------------|
g]----------------------------------------13-15-16~~~16--------------------|
d]---------------------------------------------------------14-14-14-1413-11|
a]-------------------------------------------------------------------------|
E]-------------------------------------------------------------------------|

e]-------------------------------------------------------------------------|
b]---------------------------------------------------------------17~~~~----|
g]---------------------------------------------------14--16-18-19------14--|
d]-11-11-11\16-16-19-18-16-14---13~~~~~--------14---14---------------------|
a]-------------------------------------------------------------------------|
E]-------------------------------------------------------------------------|
-
e]-------------------------------------------------------------------------|
b]-------------------------------------------------------------------------|
g]-16-18~~~~-19~~~~-16~~~~----14~~~~~~-------------------------------------|
d]-------------------------------------------------------------------------|
a]-------------------------------------------------------------------------|
E]-------------------------------------------------------------------------|
Tap to rate this tab
 
# A B C D E F G H I J K L M N O P Q R S T U V W X Y Z