Song name
# A B C D E F G H I J K L M N O P Q R S T U V W X Y Z

Misc Unsigned Bands - Dicks In The Sun - Minneapolis tab

Minneapolis

Intro/Verse
e---------------2-2--3-----------3---------------0---0---|
B-----------3-----3------3-------3-----------1-------1---|
G-------2---------2----------3---3-------2-----------2---|
D---0-------------0--------------3---3---------------3---|
A--------------------------------------------------------|
E--------------------------------------------------------|

Chorus
e---0--------------0----------------0---0---3---------------3--|
B------1-----------1-----------1--------1-------1-----------1--|
G----------2-------2-------2------------2-----------2-------2--|
D--------------3---3---2----------------2---------------2---2--|
A--------------------------------------------------------------|
E--------------------------------------------------------------|

Intro/Verse
e---------------2-2--3-----------3---------------0---0---|
B-----------3-----3------3-------3-----------1-------1---|
G-------2---------2----------3---3-------2-----------2---|
D---0-------------0--------------3---3---------------3---|
A--------------------------------------------------------|
E--------------------------------------------------------|

Chorus
e---0--------------0----------------0---0---3---------------3--|
B------1-----------1-----------1--------1-------1-----------1--|
G----------2-------2-------2------------2-----------2-------2--|
D--------------3---3---2----------------2---------------2---2--|
A--------------------------------------------------------------|
E--------------------------------------------------------------|

Solo
e-----------------------------------------------------------------|
B-----------------------------------------------------------------|
G----------------2-4-------3-1-0---------------2------------------|
D----------0-2-2-----2-4/5-------2-0-----------2-2-2-2-2~--4-4h5--|
A--2-2-0-2---------------------------2-2-2-0-0-0------------------|
E-----------------------------------------------------------------|
Tap to rate this tab
# A B C D E F G H I J K L M N O P Q R S T U V W X Y Z