Song name
# A B C D E F G H I J K L M N O P Q R S T U V W X Y Z

Misc Unsigned Bands - Purplepuke - Here I Come Falling tab

Verse:

e|--------7--|
B|---5-------|
G|-----6-----|
D|-6---------|
A|-----------|(x8)
D|-----------|

Chorus:

e|-----------------------------------------|
B|-----------------------------------------|
G|-----------------------------------------|
D|-x-00000000-44444444-77777777-22222222---|
A|-x-00000000-44444444-77777777-22222222---|(x4, the muted strings are only played the
E|-x-00000000-44444444-77777777-22222222---|first time)


Interlude:

e|------------|
B|------------|
G|------------|
D|-0000-0000--|
A|-0000-0000--|(palm muted, eight note strums)
E|-0000-0000--|


-Repeat Verse- 

-Chorus-

-Repeat Interlude-


Bridge: 

e|------------------------------------|
B|------------------------------------|
G|------------------------------------|
D|-7-----4-----2-----0----------------|
A|-7-----4-----2-----0----------------|(x5, each chord is held for 4 beats)
E|-7-----4-----2-----0----------------|

-Repeat Interlude-

Solo:

e|---------8-------------------8--------------------------------------|
B|-5h7h8-5---5h7h8-5---5h7h8-5---5h7h8-5---5h7h8-5h7\4-5h7h8-5h7/12---|
G|-------------------7-------------------7----------------------------|
D|--------------------------------------------------------------------|
A|--------------------------------------------------------------------|
E|--------------------------------------------------------------------|

e|----------------------------------|
B|-5h7h8 5h7/15 5h7h8 5h7/17b-------|
G|----------------------------------|
D|----------------------------------|
A|----------------------------------|(eh, it may not be an awesome solo but it sounds 
E|----------------------------------|pretty ok, dont be harsh about it)

-Repeat Interlude- 

-Repeat Chorus x2-

-Repeat Interlude- It just ends with the interlude, don't let the chord ring tho and thats it.

END!!!!!!!!!!!!!!!!!!   !!! !! !! !! ! !!! ! !


Tap to rate this tab
 
# A B C D E F G H I J K L M N O P Q R S T U V W X Y Z