Song name
# A B C D E F G H I J K L M N O P Q R S T U V W X Y Z

Misc Unsigned Bands - Kate Micucci - Screw You tab

As seen in Scrubs. This is played on ukelele.

enjoy
INTRO
|-3--------3----|-2-------2-----|---0-------0--|-2--------------------------|
|------0--------|-3-----3-------|-1-------1----|-3--------------------------|
|---------------|---------------|------0-------|-2--------------------------|
|----0-------0--|----0--------0-|--------------|-0--------------------------|

Verse

|-3--------3----|-2-------2-----|---0-------0--|-2-----2--------------------|
|------0--------|-3-----3-------|-1-------1----|-3----3---------------------|
|---------------|---------------|------0-------|----------------------------|
|----0-------0--|-0--0--------0-|--------------|----0----0------------------|


then strum the C Em F G chords for the chorus
Tap to rate this tab
 
# A B C D E F G H I J K L M N O P Q R S T U V W X Y Z