Song name
# A B C D E F G H I J K L M N O P Q R S T U V W X Y Z

Misc Unsigned Bands - Charley Robbins - Ran Out Of Beer tab

Help us improve GuitareTab! Take a short survey!
INTRO:

e-0---------------3-------5---3---0---------------------------------|
B---1-----3---1-----0---0-------0---1-----3---1-----0---3---1---0---|
G-------2-------0-----------------------0-------0-------------------|  (x2)
D-----2-------------------------------2---------------2-------2-----|
A-0---------0---------2-----------3---------3-------------2---------|
E-----------------3---------3---------------------0-----------------|

VERSE:

e-------------------3-------3---------------------------------------|
B---1-------1-----------0-------0---1-------1-------------0-1-0-----|
G-------2-------2-----------------------0-------0-------0-------0---| (REPEAT)
D-----2-------2-----------------------2-------2-------2-------------|
A-0-------0-----------2-------2---3-------3---------2---------------|
E-----------------3-------3-----------------------0-----------------|


CHORUS:

e---1-----3---1-----------------------------------------------------|
B-------3-------0---1-----3---1---------------------1-----1---------|
G-----2-----------------2-------0---1-----2---1---------2-----------|   (x2)
D-0---------0---------2-----------------2-------0-----2-------------|
A-----------------0---------0---------2-----------0---------0-2-3---|
E---------------------------------0---------0-----------------------|
Related for Charley Robbins - Ran Out Of Beer tab