Song name
# A B C D E F G H I J K L M N O P Q R S T U V W X Y Z

Misc Unsigned Bands - Mirror Of Your Heart - Chris Christian tab

#----------------------PLEASE NOTE------------------------#
# This file is the author's own work and represents their #
# interpretation of the song. You may only use this file  #
#      for private study, scholarship, or research.       #
#---------------------------------------------------------#

Song Title:	Mirror Of Your Heart
Artist:		Chris Christian
Album Title:	Mirror Of Your Heart
Transcribed by: Geoffrey B Oblimar


Intro: (To be played twice)
   
   G                 Em
e|-7---5-7-5-10-7--|-----5-7-5-10-7-|
B|-----------------|----------------|
G|-----------------|----------------|
D|-----------------|----------------|
A|-----------------|----------------|
E|-----------------|----------------|
 |Guitar 1 (w/ delay)
 |
 |
e|---3-----3-------|--3-----3-------|
B|-----3-----3---3-|----3-----3---3-|
G|-------0-----0---|------0-----0---|
D|-----------------|----------------|
A|-----------------|----------------|
E|-----------------|----------------|
  Guitar 2 (w/ chorus)

     C                D
e|-----------------|------8--7------|
B|-------8---------|------------8---|
G|-----------------|----------------|
D|-----------------|----------------|
A|-----------------|----------------|
E|-----------------|----------------|
 |Guitar 1
 |
 |
e|---3-----3-------|--3-----3-------|
B|-----3-----3---3-|----3-----3---3-|
G|-------0-----0---|------0-----0---|
D|-----------------|----------------|
A|-----------------|----------------|
E|-----------------|----------------|
  Guitar 2


Verse 1:
       G                 Em
All I want for others to see
        C           D            G
Is a reflection of You inside of me
                           Em
Like the sun on the still water
       C     D              G
Let me be a mirror of Your heart


Chorus:
          Em            D       C  Bm
I want to walk in the image of You
        Em      D
Like a child imitating
C        Bm           Am (with riff 1)
What his Father would do
  D               G
A mirror of Your heart


Verse 2:
                        Em
Lord I want to be You disciple
    C               D         G
An example the way You are to me
                             Em
And I as see Your humble perfection
       C      D             G
Let me be a mirror of Your heart


Chorus:
          Em            D       C  Bm
I want to walk in the image of You
        Em      D
Like a child imitating
C        Bm           Am (with riff 1)
What her Father would do
  D               G
A mirror of Your heart


Coda:
Em     C                D              G
All I want to be is a mirror of Your heart
Em        C            D              G   Em  C
Just an example of a mirror of Your heart
    D             G
A mirror of Your heart 
                       Em                     C
(You're the example for me all that I want to be)
      D              G
Is a mirror of Your heart
                       Em                      C
(Reflecting all that I am so that they may see You)
D        G
Oh an example
                       Em                     C
(You're the example for me all that I want to be)
D            G
Oh just an example
                       Em                      C
(Reflecting all that I am so that they may see You)
         D             G
Just a mirror of Your heart
                        Em                    C
(You're the example for me all that I want to be)
       D    B7       E
Is a mirror of Your heart


Riff 1:
e|----------------------|
B|----1----3----6----8~-|
G|-/2---/4---/7---/9----|
D|----------------------|
A|----------------------|
E|----------------------|


_____________________________________________________
Any comments/suggestions? e-mail: gboblimar@yahoo.com
Tap to rate this tab
# A B C D E F G H I J K L M N O P Q R S T U V W X Y Z