Song name
# A B C D E F G H I J K L M N O P Q R S T U V W X Y Z

Misc Unsigned Bands - Gifted But Twisted - The Evil Ice Cream Man tab

   Gifted but Twisted
"The (Evil) Ice Cream Man"         Tabbed by  Tom Marshall
   Gifted but Twisted

Ok theres two versions of this song, ver1 and ver2. Version 2 has a solo and better 
quality, but I already started tabbing version 1,so here it is.

Standard Tuning                    . = Palm Mute

Main Riff (Played a few times)
e---------------------|
b---------------------|
g---------------------|
d---22-777--9-9--777--|
a---22-777--9-9--777--|
E---00-555--7-7--555--|

every time the main riff is played
this is played at the end
e---------------|
b---------------|
g---------------|
d---77777--7-9--|
a---77777--7-9--|
E---55555--5-7--|
    .....

thats pretty much it but if u want help with version2 solos and highparts,i think its 
on these three notes (and a couple others added in that i dont know)

e---12--17--19--|
b---------------|
g---------------|
d---------------|
a---------------|
E---------------|
Tap to rate this tab
# A B C D E F G H I J K L M N O P Q R S T U V W X Y Z