Song name
# A B C D E F G H I J K L M N O P Q R S T U V W X Y Z

Misc Unsigned Bands - The Unaffected - Wont Stand Down tab

this is a song i wrote when i was really boards, the name is not offical, because 
its only a couple riffs, give me ideas of some names
|----------------------------------intro------------------------------------|

e|-----------------------------------|\
B|-----------------------------------| \
G|-----------------------0-----------|  \   x4
D|--------------------9--------------|  /
A|-----------------7-----------------| /
E|-----------------------------------|/


e|-----------------------------------|\
B|-----------------------------------| \
G|-----------------------0-----------|  \   x4
D|--------------------7--------------|  /
A|-----------------5-----------------| /
E|-----------------------------------|/


e|-----------------------------------|\
B|-----------------------------------| \
G|-----------------------0-----------|  \   x4
D|--------------------9--------------|  /
A|-----------------7-----------------| /
E|-----------------------------------|/


e|-----------------------------------|\
B|-----------------------------------| \
G|-----------------------0-----------|  \   x4
D|--------------------7--------------|  /
A|-----------------5-----------------| /
E|-----------------------------------|/


e|-----------------------------------|\
B|-----------------------------------| \
G|-----------------------0-----------|  \   x2
D|--------------------5--------------|  /
A|-----------------3-----------------| /
E|-----------------------------------|/

e|-----------------------------------|\
B|-----------------------------------| \
G|-----------------------0-----------|  \   x1
D|--------------------7--------------|  /
A|-----------------5-----------------| /
E|-----------------------------------|/

|------------------------------------choris---------------------------------|


e|-----------------------------------|
B|-----------------------------------| 
G|-----------------------------------|  
D|--9-9-9-9-9-9-9-9------------------|  
A|--7-7-7-7-7-7-7-7------------------| 
E|-----------------------------------|

e|-----------------------------------|
B|-----------------------------------| 
G|-----------------------------------|  
D|--7-7-7-7-7-7-7-7------------------|  
A|--5-5-5-5-5-5-5-5------------------| 
E|-----------------------------------|

e|-----------------------------------|
B|-----------------------------------| 
G|-----------------------------------|  
D|--9-9-9-9--------------------------|  
A|--7-7-7-7--------------------------| 
E|-----------------------------------|

e|-----------------------------------|
B|-----------------------------------| 
G|-----------------------------------|  
D|--5(hold)-----7(hold)----9~~~~-----|
A|--3(hold)-----5(hold)----7~~~~-----|
E|-----------------------------------|

|--------------------------------------bridge-------------------------------|


e|-----------------------------------|\
B|-----------------------------------| \
G|-----------------------------------|  \   x3
D|-----9-----------------------------|  /
A|---------7-------------------------| /
E|--0--------------------------------|/

e|-----------------------------------|\
B|-----------------------------------| \
G|-----------------------------------|  \   x3
D|-----7-----------------------------|  /
A|---------5-------------------------| /
E|--0--------------------------------|/

e|-----------------------------------|\
B|-----------------------------------| \
G|-----------------------------------|  \   x3
D|-----5-----------------------------|  /
A|---------3-------------------------| /
E|--0--------------------------------|/

e|-----------------------------------|\
B|-----------------------------------| \
G|-----------------------------------|  \   x3
D|---7-7-7-------9-9-9---------------|  /
A|---5-5-5-------7-7-7---------------| /
E|-----------------------------------|/




|----------------------------------outro-----------------------------------|

^^^^^^^^^^^^^tabbing^^^^^^^^^^^^^
e|-2-3-0-2-3-0-2-3-0-2-3-0-2-3-0-----|
B|-----------------------------------|
G|-----------------------------------|
D|-----------------------------------|
A|-----------------------------------|
E|-----------------------------------|


e|---3\h9-9\h12----------------------|
B|-----------------------------------|
G|-----------------------------------|
D|-----------------------------------|
A|-----------------------------------|
E|-----------------------------------|


^^^^^^^^^^^^^tabbing^^^^^^^^^^^^^
e|-2-3-0-2-3-0-2-3-0-2-3-0-2-3-0-----|
B|-----------------------------------|
G|-----------------------------------|
D|-----------------------------------|
A|-----------------------------------|
E|-----------------------------------|


e|---12/h9-9/h3----------------------|
B|-----------------------------------|
G|-----------------------------------|
D|-----------------------------------|
A|-----------------------------------|
E|-----------------------------------|

^^^^^^^^^^^^^tabbing^^^^^^^^^^^^^
e|-2-3-0-2-3-0-2-3-0-2-3-0-2-3-0-----|
B|-----------------------------------|
G|-----------------------------------|
D|-----------------------------------|
A|-----------------------------------|
E|-----------------------------------|


e|---3\h9-9\h12----------------------|
B|-----------------------------------|
G|-----------------------------------|
D|-----------------------------------|
A|-----------------------------------|
E|-----------------------------------|


|--------------------------------order of song------------------------------|

intro
choris
bridge
intro
choris
intro
outro
Tap to rate this tab
 
# A B C D E F G H I J K L M N O P Q R S T U V W X Y Z