Song name
# A B C D E F G H I J K L M N O P Q R S T U V W X Y Z

Misc Unsigned Bands - Dear Cyanide - March Of The Dying tab

March of the Dying
Dear Cyanide
2009

~Intro~
e|--------------------------------------------------------------------------|
b|--------------------------------------------------------------------------|
g|--------------------------------------------------------------------------|
d|----------------------------------------------7-6-------------------------|
a|--0-0---0-0---5-7-5--7-8-7-0-0--0-0--5-7-5--8-----7-----------------------|
d|--0-0---0-0----------------0-0--0-0---------------------------------------|

 (Play 4 Times)

~Verse Riff~
e|--------------------------------------------------------------------------|
b|--------------------------------------------------------------------------|
g|--------------------------------------------------------------------------|
d|------------------------------------------------------------3--5-3(~)-----|
a|-------------------5-3------------------------------5-3-6-5--6------------|
d|--0-0-0-0-0-0-0-0------6-5-3-5-3-2-0-0-0-0-0-0-0-0------------------------|

(play 8 times using a pinch harmonic on the 4th time for the last note)

~Chorus Riff 1~
e|--------------------------------------------------------------------------|
b|--------------------------------------------------------------------------|
g|--------------------------------------------------------------------------|
d|----------------------------3-----------------------------------3-2-------|
a|------------------------------5-3---------------------------5-3-----------|
d|---0--0-0--3-5-x-0--0-0-0---------6--0--0-0--3-5-x-0--0-0-0---------------|
(play 4 times)

~Chorus Riff 2~
e|--------------------------------------------------------------------------|
b|--------------------------------------------------------------------------|
g|--------------------------------------------------------------------------|
d|-3-3-3-3-3-3-3-3/5-5-5-5-5-5-5-5------3-2-0-6-3-2--3-2-0-6-3-2--0---------|
a|-3-3-3-3-3-3-3-3/5-5-5-5-5-5-5-5------3-2-0-6-3-2--3-2-0-6-3-2--0---------|
d|-3-3-3-3-3-3-3-3/5-5-5-5-5-5-5-5------3-2-0-6-3-2--3-2-0-6-3-2--0---------|

(Repeat Verse Riff and Chorus Riffs x2)

~Outro~
e|--------------------------------------------------------------------------|
b|--------------------------------------------------------------------------|
g|--------------------------------------------------------------------------|
d|-----------------------7------------------------7-------------------------|
a|-------5-7---5-7---7-8---5------5-7---5-7---7-8---5-----------------------|
d|--0-0---0--0--0--0---------0-0---0--0--0--0-------------------------------|

e|--------------------------------------------------------------------------|
b|--------------------------------------------------------------------------|
g|-----------------------7--------------------8-7---------------------------|
d|-------5-8---5-8---7-8---5------5-8---5-8-------8-7-----------------------|
a|--------------------------------------------------------------------------|
d|--0-0---0--0--0--0---------0-0---0--0--0--0-------------------------------|

(Play 4 times)

(Repeat Chorus Riff 2 once and let ring)
Tap to rate this tab
# A B C D E F G H I J K L M N O P Q R S T U V W X Y Z